  0
SECTION
  2
ENTITIES
  0
LINE
  8
0
 62
 170 
 10
 1220.495
 20
 475
 11
 1220.496
 21
 425
  0
LINE
  8
0
 62
 170 
 10
 1220.496
 20
 425
 11
 1220.497
 21
 375
  0
LINE
  8
0
 62
 170 
 10
 1220.497
 20
 375
 11
 1220.497
 21
 371.9224
  0
LINE
  8
0
 62
 170 
 10
 1220.497
 20
 256
 11
 1220.498
 21
 225
  0
LINE
  8
0
 62
 170 
 10
 1220.498
 20
 225
 11
 1220.498
 21
 175
  0
LINE
  8
0
 62
 170 
 10
 1220.498
 20
 175
 11
 1220.499
 21
 125
  0
LINE
  8
0
 62
 170 
 10
 1220.499
 20
 125
 11
 1220.499
 21
 75
  0
LINE
  8
0
 62
 170 
 10
 1220.499
 20
 75
 11
 1220.497
 21
 25
  0
LINE
  8
0
 62
 170 
 10
 1203.808
 20
 261.8901
 11
 1202.827
 21
 263.8535
  0
LINE
  8
0
 62
 170 
 10
 1202.827
 20
 263.8535
 11
 1199.881
 21
 266.7986
  0
LINE
  8
0
 62
 170 
 10
 1199.881
 20
 266.7986
 11
 1220.497
 21
 266.7986
  0
LINE
  8
0
 62
 170 
 10
 1204.79
 20
 279.5605
 11
 1203.808
 21
 279.5605
  0
LINE
  8
0
 62
 170 
 10
 1203.808
 20
 279.5605
 11
 1201.845
 21
 280.5422
  0
LINE
  8
0
 62
 170 
 10
 1201.845
 20
 280.5422
 11
 1200.863
 21
 281.5239
  0
LINE
  8
0
 62
 170 
 10
 1200.863
 20
 281.5239
 11
 1199.881
 21
 283.4873
  0
LINE
  8
0
 62
 170 
 10
 1199.881
 20
 283.4873
 11
 1199.881
 21
 287.4141
  0
LINE
  8
0
 62
 170 
 10
 1199.881
 20
 287.4141
 11
 1200.863
 21
 289.3775
  0
LINE
  8
0
 62
 170 
 10
 1200.863
 20
 289.3775
 11
 1201.845
 21
 290.3592
  0
LINE
  8
0
 62
 170 
 10
 1201.845
 20
 290.3592
 11
 1203.808
 21
 291.3409
  0
LINE
  8
0
 62
 170 
 10
 1203.808
 20
 291.3409
 11
 1205.772
 21
 291.3409
  0
LINE
  8
0
 62
 170 
 10
 1205.772
 20
 291.3409
 11
 1207.735
 21
 290.3592
  0
LINE
  8
0
 62
 170 
 10
 1207.735
 20
 290.3592
 11
 1210.68
 21
 288.3958
  0
LINE
  8
0
 62
 170 
 10
 1210.68
 20
 288.3958
 11
 1220.497
 21
 278.5789
  0
LINE
  8
0
 62
 170 
 10
 1220.497
 20
 278.5789
 11
 1220.497
 21
 292.3226
  0
LINE
  8
0
 62
 170 
 10
 1203.808
 20
 301.1578
 11
 1202.826
 21
 303.1212
  0
LINE
  8
0
 62
 170 
 10
 1202.826
 20
 303.1212
 11
 1199.881
 21
 306.0662
  0
LINE
  8
0
 62
 170 
 10
 1199.881
 20
 306.0662
 11
 1220.497
 21
 306.0663
  0
LINE
  8
0
 62
 170 
 10
 1218.533
 20
 319.81
 11
 1219.515
 21
 318.8283
  0
LINE
  8
0
 62
 170 
 10
 1219.515
 20
 318.8283
 11
 1220.497
 21
 319.81
  0
LINE
  8
0
 62
 170 
 10
 1220.497
 20
 319.81
 11
 1219.515
 21
 320.7917
  0
LINE
  8
0
 62
 170 
 10
 1219.515
 20
 320.7917
 11
 1218.533
 21
 319.81
  0
LINE
  8
0
 62
 170 
 10
 1204.79
 20
 328.6451
 11
 1203.808
 21
 328.6451
  0
LINE
  8
0
 62
 170 
 10
 1203.808
 20
 328.6451
 11
 1201.845
 21
 329.6268
  0
LINE
  8
0
 62
 170 
 10
 1201.845
 20
 329.6268
 11
 1200.863
 21
 330.6085
  0
LINE
  8
0
 62
 170 
 10
 1200.863
 20
 330.6085
 11
 1199.881
 21
 332.5719
  0
LINE
  8
0
 62
 170 
 10
 1199.881
 20
 332.5719
 11
 1199.881
 21
 336.4987
  0
LINE
  8
0
 62
 170 
 10
 1199.881
 20
 336.4987
 11
 1200.863
 21
 338.462
  0
LINE
  8
0
 62
 170 
 10
 1200.863
 20
 338.462
 11
 1201.845
 21
 339.4438
  0
LINE
  8
0
 62
 170 
 10
 1201.845
 20
 339.4438
 11
 1203.808
 21
 340.4254
  0
LINE
  8
0
 62
 170 
 10
 1203.808
 20
 340.4254
 11
 1205.771
 21
 340.4254
  0
LINE
  8
0
 62
 170 
 10
 1205.771
 20
 340.4254
 11
 1207.735
 21
 339.4438
  0
LINE
  8
0
 62
 170 
 10
 1207.735
 20
 339.4438
 11
 1210.68
 21
 337.4804
  0
LINE
  8
0
 62
 170 
 10
 1210.68
 20
 337.4804
 11
 1220.497
 21
 327.6635
  0
LINE
  8
0
 62
 170 
 10
 1220.497
 20
 327.6635
 11
 1220.497
 21
 341.4072
  0
LINE
  8
0
 62
 170 
 10
 1199.881
 20
 359.0776
 11
 1199.881
 21
 349.2607
  0
LINE
  8
0
 62
 170 
 10
 1199.881
 20
 349.2607
 11
 1208.716
 21
 348.279
  0
LINE
  8
0
 62
 170 
 10
 1208.716
 20
 348.279
 11
 1207.735
 21
 349.2607
  0
LINE
  8
0
 62
 170 
 10
 1207.735
 20
 349.2607
 11
 1206.753
 21
 352.2057
  0
LINE
  8
0
 62
 170 
 10
 1206.753
 20
 352.2057
 11
 1206.753
 21
 355.1508
  0
LINE
  8
0
 62
 170 
 10
 1206.753
 20
 355.1508
 11
 1207.735
 21
 358.0959
  0
LINE
  8
0
 62
 170 
 10
 1207.735
 20
 358.0959
 11
 1209.698
 21
 360.0593
  0
LINE
  8
0
 62
 170 
 10
 1209.698
 20
 360.0593
 11
 1212.643
 21
 361.041
  0
LINE
  8
0
 62
 170 
 10
 1212.643
 20
 361.041
 11
 1214.607
 21
 361.041
  0
LINE
  8
0
 62
 170 
 10
 1214.607
 20
 361.041
 11
 1217.552
 21
 360.0593
  0
LINE
  8
0
 62
 170 
 10
 1217.552
 20
 360.0593
 11
 1219.515
 21
 358.0959
  0
LINE
  8
0
 62
 170 
 10
 1219.515
 20
 358.0959
 11
 1220.497
 21
 355.1509
  0
LINE
  8
0
 62
 170 
 10
 1220.497
 20
 355.1509
 11
 1220.497
 21
 352.2058
  0
LINE
  8
0
 62
 170 
 10
 1220.497
 20
 352.2058
 11
 1219.515
 21
 349.2607
  0
LINE
  8
0
 62
 170 
 10
 1219.515
 20
 349.2607
 11
 1218.533
 21
 348.279
  0
LINE
  8
0
 62
 170 
 10
 1218.533
 20
 348.279
 11
 1216.57
 21
 347.2973
  0
LINE
  8
0
 62
 170 
 10
 1195.13
 20
 475
 11
 1195.136
 21
 425
  0
LINE
  8
0
 62
 170 
 10
 1195.136
 20
 425
 11
 1195.142
 21
 375
  0
LINE
  8
0
 62
 170 
 10
 1195.142
 20
 375
 11
 1195.142
 21
 371.9224
  0
LINE
  8
0
 62
 170 
 10
 1195.144
 20
 256
 11
 1195.148
 21
 225
  0
LINE
  8
0
 62
 170 
 10
 1195.148
 20
 225
 11
 1195.148
 21
 175
  0
LINE
  8
0
 62
 170 
 10
 1195.148
 20
 175
 11
 1195.154
 21
 125
  0
LINE
  8
0
 62
 170 
 10
 1195.154
 20
 125
 11
 1195.154
 21
 75
  0
LINE
  8
0
 62
 170 
 10
 1195.154
 20
 75
 11
 1195.142
 21
 25
  0
LINE
  8
0
 62
 170 
 10
 1178.455
 20
 261.8898
 11
 1177.474
 21
 263.8532
  0
LINE
  8
0
 62
 170 
 10
 1177.474
 20
 263.8532
 11
 1174.529
 21
 266.7982
  0
LINE
  8
0
 62
 170 
 10
 1174.529
 20
 266.7982
 11
 1195.144
 21
 266.7986
  0
LINE
  8
0
 62
 170 
 10
 1179.437
 20
 279.5603
 11
 1178.455
 21
 279.5603
  0
LINE
  8
0
 62
 170 
 10
 1178.455
 20
 279.5603
 11
 1176.492
 21
 280.5419
  0
LINE
  8
0
 62
 170 
 10
 1176.492
 20
 280.5419
 11
 1175.51
 21
 281.5236
  0
LINE
  8
0
 62
 170 
 10
 1175.51
 20
 281.5236
 11
 1174.528
 21
 283.487
  0
LINE
  8
0
 62
 170 
 10
 1174.528
 20
 283.487
 11
 1174.528
 21
 287.4137
  0
LINE
  8
0
 62
 170 
 10
 1174.528
 20
 287.4137
 11
 1175.51
 21
 289.3771
  0
LINE
  8
0
 62
 170 
 10
 1175.51
 20
 289.3771
 11
 1176.491
 21
 290.3588
  0
LINE
  8
0
 62
 170 
 10
 1176.491
 20
 290.3588
 11
 1178.455
 21
 291.3406
  0
LINE
  8
0
 62
 170 
 10
 1178.455
 20
 291.3406
 11
 1180.418
 21
 291.3406
  0
LINE
  8
0
 62
 170 
 10
 1180.418
 20
 291.3406
 11
 1182.382
 21
 290.3589
  0
LINE
  8
0
 62
 170 
 10
 1182.382
 20
 290.3589
 11
 1185.327
 21
 288.3956
  0
LINE
  8
0
 62
 170 
 10
 1185.327
 20
 288.3956
 11
 1195.144
 21
 278.5789
  0
LINE
  8
0
 62
 170 
 10
 1195.144
 20
 278.5789
 11
 1195.144
 21
 292.3226
  0
LINE
  8
0
 62
 170 
 10
 1178.455
 20
 301.1575
 11
 1177.473
 21
 303.1208
  0
LINE
  8
0
 62
 170 
 10
 1177.473
 20
 303.1208
 11
 1174.528
 21
 306.0659
  0
LINE
  8
0
 62
 170 
 10
 1174.528
 20
 306.0659
 11
 1195.143
 21
 306.0663
  0
LINE
  8
0
 62
 170 
 10
 1193.18
 20
 319.8099
 11
 1194.161
 21
 318.8282
  0
LINE
  8
0
 62
 170 
 10
 1194.161
 20
 318.8282
 11
 1195.143
 21
 319.81
  0
LINE
  8
0
 62
 170 
 10
 1195.143
 20
 319.81
 11
 1194.161
 21
 320.7916
  0
LINE
  8
0
 62
 170 
 10
 1194.161
 20
 320.7916
 11
 1193.18
 21
 319.8099
  0
LINE
  8
0
 62
 170 
 10
 1174.527
 20
 339.4434
 11
 1174.527
 21
 329.6265
  0
LINE
  8
0
 62
 170 
 10
 1174.527
 20
 329.6265
 11
 1183.363
 21
 328.645
  0
LINE
  8
0
 62
 170 
 10
 1183.363
 20
 328.645
 11
 1182.381
 21
 329.6266
  0
LINE
  8
0
 62
 170 
 10
 1182.381
 20
 329.6266
 11
 1181.399
 21
 332.5717
  0
LINE
  8
0
 62
 170 
 10
 1181.399
 20
 332.5717
 11
 1181.399
 21
 335.5168
  0
LINE
  8
0
 62
 170 
 10
 1181.399
 20
 335.5168
 11
 1182.381
 21
 338.4619
  0
LINE
  8
0
 62
 170 
 10
 1182.381
 20
 338.4619
 11
 1184.344
 21
 340.4253
  0
LINE
  8
0
 62
 170 
 10
 1184.344
 20
 340.4253
 11
 1187.289
 21
 341.407
  0
LINE
  8
0
 62
 170 
 10
 1187.289
 20
 341.407
 11
 1189.252
 21
 341.4071
  0
LINE
  8
0
 62
 170 
 10
 1189.252
 20
 341.4071
 11
 1192.198
 21
 340.4254
  0
LINE
  8
0
 62
 170 
 10
 1192.198
 20
 340.4254
 11
 1194.161
 21
 338.4621
  0
LINE
  8
0
 62
 170 
 10
 1194.161
 20
 338.4621
 11
 1195.143
 21
 335.517
  0
LINE
  8
0
 62
 170 
 10
 1195.143
 20
 335.517
 11
 1195.143
 21
 332.572
  0
LINE
  8
0
 62
 170 
 10
 1195.143
 20
 332.572
 11
 1194.161
 21
 329.6269
  0
LINE
  8
0
 62
 170 
 10
 1194.161
 20
 329.6269
 11
 1193.179
 21
 328.6451
  0
LINE
  8
0
 62
 170 
 10
 1193.179
 20
 328.6451
 11
 1191.216
 21
 327.6634
  0
LINE
  8
0
 62
 170 
 10
 1174.527
 20
 353.1871
 11
 1175.509
 21
 350.242
  0
LINE
  8
0
 62
 170 
 10
 1175.509
 20
 350.242
 11
 1178.454
 21
 348.2787
  0
LINE
  8
0
 62
 170 
 10
 1178.454
 20
 348.2787
 11
 1183.362
 21
 347.2971
  0
LINE
  8
0
 62
 170 
 10
 1183.362
 20
 347.2971
 11
 1186.307
 21
 347.2971
  0
LINE
  8
0
 62
 170 
 10
 1186.307
 20
 347.2971
 11
 1191.216
 21
 348.279
  0
LINE
  8
0
 62
 170 
 10
 1191.216
 20
 348.279
 11
 1194.161
 21
 350.2424
  0
LINE
  8
0
 62
 170 
 10
 1194.161
 20
 350.2424
 11
 1195.142
 21
 353.1875
  0
LINE
  8
0
 62
 170 
 10
 1195.142
 20
 353.1875
 11
 1195.142
 21
 355.1509
  0
LINE
  8
0
 62
 170 
 10
 1195.142
 20
 355.1509
 11
 1194.161
 21
 358.0959
  0
LINE
  8
0
 62
 170 
 10
 1194.161
 20
 358.0959
 11
 1191.215
 21
 360.0593
  0
LINE
  8
0
 62
 170 
 10
 1191.215
 20
 360.0593
 11
 1186.307
 21
 361.0409
  0
LINE
  8
0
 62
 170 
 10
 1186.307
 20
 361.0409
 11
 1183.362
 21
 361.0408
  0
LINE
  8
0
 62
 170 
 10
 1183.362
 20
 361.0408
 11
 1178.453
 21
 360.059
  0
LINE
  8
0
 62
 170 
 10
 1178.453
 20
 360.059
 11
 1175.508
 21
 358.0956
  0
LINE
  8
0
 62
 170 
 10
 1175.508
 20
 358.0956
 11
 1174.527
 21
 355.1505
  0
LINE
  8
0
 62
 170 
 10
 1174.527
 20
 355.1505
 11
 1174.527
 21
 353.1871
  0
LINE
  8
0
 62
 170 
 10
 1172.138
 20
 475
 11
 1172.145
 21
 425
  0
LINE
  8
0
 62
 170 
 10
 1172.145
 20
 425
 11
 1172.15
 21
 375
  0
LINE
  8
0
 62
 170 
 10
 1172.15
 20
 375
 11
 1172.15
 21
 371.9224
  0
LINE
  8
0
 62
 170 
 10
 1172.152
 20
 256
 11
 1172.155
 21
 225
  0
LINE
  8
0
 62
 170 
 10
 1172.155
 20
 225
 11
 1172.155
 21
 175
  0
LINE
  8
0
 62
 170 
 10
 1172.155
 20
 175
 11
 1172.161
 21
 125
  0
LINE
  8
0
 62
 170 
 10
 1172.161
 20
 125
 11
 1172.161
 21
 75
  0
LINE
  8
0
 62
 170 
 10
 1172.161
 20
 75
 11
 1172.15
 21
 25
  0
LINE
  8
0
 62
 170 
 10
 1155.463
 20
 261.8899
 11
 1154.481
 21
 263.8533
  0
LINE
  8
0
 62
 170 
 10
 1154.481
 20
 263.8533
 11
 1151.536
 21
 266.7983
  0
LINE
  8
0
 62
 170 
 10
 1151.536
 20
 266.7983
 11
 1172.152
 21
 266.7986
  0
LINE
  8
0
 62
 170 
 10
 1156.444
 20
 279.5604
 11
 1155.463
 21
 279.5604
  0
LINE
  8
0
 62
 170 
 10
 1155.463
 20
 279.5604
 11
 1153.499
 21
 280.542
  0
LINE
  8
0
 62
 170 
 10
 1153.499
 20
 280.542
 11
 1152.518
 21
 281.5237
  0
LINE
  8
0
 62
 170 
 10
 1152.518
 20
 281.5237
 11
 1151.536
 21
 283.4871
  0
LINE
  8
0
 62
 170 
 10
 1151.536
 20
 283.4871
 11
 1151.536
 21
 287.4138
  0
LINE
  8
0
 62
 170 
 10
 1151.536
 20
 287.4138
 11
 1152.518
 21
 289.3772
  0
LINE
  8
0
 62
 170 
 10
 1152.518
 20
 289.3772
 11
 1153.499
 21
 290.3589
  0
LINE
  8
0
 62
 170 
 10
 1153.499
 20
 290.3589
 11
 1155.463
 21
 291.3407
  0
LINE
  8
0
 62
 170 
 10
 1155.463
 20
 291.3407
 11
 1157.426
 21
 291.3407
  0
LINE
  8
0
 62
 170 
 10
 1157.426
 20
 291.3407
 11
 1159.389
 21
 290.359
  0
LINE
  8
0
 62
 170 
 10
 1159.389
 20
 290.359
 11
 1162.334
 21
 288.3957
  0
LINE
  8
0
 62
 170 
 10
 1162.334
 20
 288.3957
 11
 1172.151
 21
 278.5789
  0
LINE
  8
0
 62
 170 
 10
 1172.151
 20
 278.5789
 11
 1172.151
 21
 292.3226
  0
LINE
  8
0
 62
 170 
 10
 1155.462
 20
 301.1576
 11
 1154.481
 21
 303.1209
  0
LINE
  8
0
 62
 170 
 10
 1154.481
 20
 303.1209
 11
 1151.536
 21
 306.066
  0
LINE
  8
0
 62
 170 
 10
 1151.536
 20
 306.066
 11
 1172.151
 21
 306.0663
  0
LINE
  8
0
 62
 170 
 10
 1170.188
 20
 319.8099
 11
 1171.169
 21
 318.8283
  0
LINE
  8
0
 62
 170 
 10
 1171.169
 20
 318.8283
 11
 1172.151
 21
 319.81
  0
LINE
  8
0
 62
 170 
 10
 1172.151
 20
 319.81
 11
 1171.169
 21
 320.7917
  0
LINE
  8
0
 62
 170 
 10
 1171.169
 20
 320.7917
 11
 1170.188
 21
 319.8099
  0
LINE
  8
0
 62
 170 
 10
 1151.535
 20
 341.4069
 11
 1172.151
 21
 331.5903
  0
LINE
  8
0
 62
 170 
 10
 1151.535
 20
 327.6632
 11
 1151.535
 21
 341.4069
  0
LINE
  8
0
 62
 170 
 10
 1151.535
 20
 359.0773
 11
 1151.535
 21
 349.2604
  0
LINE
  8
0
 62
 170 
 10
 1151.535
 20
 349.2604
 11
 1160.37
 21
 348.2789
  0
LINE
  8
0
 62
 170 
 10
 1160.37
 20
 348.2789
 11
 1159.388
 21
 349.2605
  0
LINE
  8
0
 62
 170 
 10
 1159.388
 20
 349.2605
 11
 1158.407
 21
 352.2056
  0
LINE
  8
0
 62
 170 
 10
 1158.407
 20
 352.2056
 11
 1158.407
 21
 355.1507
  0
LINE
  8
0
 62
 170 
 10
 1158.407
 20
 355.1507
 11
 1159.388
 21
 358.0958
  0
LINE
  8
0
 62
 170 
 10
 1159.388
 20
 358.0958
 11
 1161.352
 21
 360.0592
  0
LINE
  8
0
 62
 170 
 10
 1161.352
 20
 360.0592
 11
 1164.297
 21
 361.0409
  0
LINE
  8
0
 62
 170 
 10
 1164.297
 20
 361.0409
 11
 1166.26
 21
 361.0409
  0
LINE
  8
0
 62
 170 
 10
 1166.26
 20
 361.0409
 11
 1169.205
 21
 360.0593
  0
LINE
  8
0
 62
 170 
 10
 1169.205
 20
 360.0593
 11
 1171.169
 21
 358.0959
  0
LINE
  8
0
 62
 170 
 10
 1171.169
 20
 358.0959
 11
 1172.15
 21
 355.1509
  0
LINE
  8
0
 62
 170 
 10
 1172.15
 20
 355.1509
 11
 1172.15
 21
 352.2058
  0
LINE
  8
0
 62
 170 
 10
 1172.15
 20
 352.2058
 11
 1171.169
 21
 349.2607
  0
LINE
  8
0
 62
 170 
 10
 1171.169
 20
 349.2607
 11
 1170.187
 21
 348.279
  0
LINE
  8
0
 62
 170 
 10
 1170.187
 20
 348.279
 11
 1168.224
 21
 347.2973
  0
LINE
  8
0
 62
 170 
 10
 1158.272
 20
 475
 11
 1158.284
 21
 425
  0
LINE
  8
0
 62
 170 
 10
 1158.284
 20
 425
 11
 1158.289
 21
 375
  0
LINE
  8
0
 62
 170 
 10
 1158.289
 20
 375
 11
 1158.289
 21
 371.9224
  0
LINE
  8
0
 62
 170 
 10
 1158.289
 20
 256
 11
 1158.291
 21
 225
  0
LINE
  8
0
 62
 170 
 10
 1158.291
 20
 225
 11
 1158.293
 21
 175
  0
LINE
  8
0
 62
 170 
 10
 1158.293
 20
 175
 11
 1158.298
 21
 125
  0
LINE
  8
0
 62
 170 
 10
 1158.298
 20
 125
 11
 1158.298
 21
 75
  0
LINE
  8
0
 62
 170 
 10
 1158.298
 20
 75
 11
 1158.287
 21
 25
  0
LINE
  8
0
 62
 170 
 10
 1141.6
 20
 261.8902
 11
 1140.618
 21
 263.8536
  0
LINE
  8
0
 62
 170 
 10
 1140.618
 20
 263.8536
 11
 1137.673
 21
 266.7987
  0
LINE
  8
0
 62
 170 
 10
 1137.673
 20
 266.7987
 11
 1158.289
 21
 266.7986
  0
LINE
  8
0
 62
 170 
 10
 1142.582
 20
 279.5607
 11
 1141.6
 21
 279.5607
  0
LINE
  8
0
 62
 170 
 10
 1141.6
 20
 279.5607
 11
 1139.636
 21
 280.5424
  0
LINE
  8
0
 62
 170 
 10
 1139.636
 20
 280.5424
 11
 1138.655
 21
 281.5241
  0
LINE
  8
0
 62
 170 
 10
 1138.655
 20
 281.5241
 11
 1137.673
 21
 283.4875
  0
LINE
  8
0
 62
 170 
 10
 1137.673
 20
 283.4875
 11
 1137.673
 21
 287.4142
  0
LINE
  8
0
 62
 170 
 10
 1137.673
 20
 287.4142
 11
 1138.655
 21
 289.3776
  0
LINE
  8
0
 62
 170 
 10
 1138.655
 20
 289.3776
 11
 1139.637
 21
 290.3593
  0
LINE
  8
0
 62
 170 
 10
 1139.637
 20
 290.3593
 11
 1141.6
 21
 291.341
  0
LINE
  8
0
 62
 170 
 10
 1141.6
 20
 291.341
 11
 1143.563
 21
 291.341
  0
LINE
  8
0
 62
 170 
 10
 1143.563
 20
 291.341
 11
 1145.527
 21
 290.3593
  0
LINE
  8
0
 62
 170 
 10
 1145.527
 20
 290.3593
 11
 1148.472
 21
 288.3959
  0
LINE
  8
0
 62
 170 
 10
 1148.472
 20
 288.3959
 11
 1158.289
 21
 278.5789
  0
LINE
  8
0
 62
 170 
 10
 1158.289
 20
 278.5789
 11
 1158.289
 21
 292.3226
  0
LINE
  8
0
 62
 170 
 10
 1142.582
 20
 299.1945
 11
 1141.6
 21
 299.1945
  0
LINE
  8
0
 62
 170 
 10
 1141.6
 20
 299.1945
 11
 1139.637
 21
 300.1762
  0
LINE
  8
0
 62
 170 
 10
 1139.637
 20
 300.1762
 11
 1138.655
 21
 301.1579
  0
LINE
  8
0
 62
 170 
 10
 1138.655
 20
 301.1579
 11
 1137.673
 21
 303.1213
  0
LINE
  8
0
 62
 170 
 10
 1137.673
 20
 303.1213
 11
 1137.673
 21
 307.0481
  0
LINE
  8
0
 62
 170 
 10
 1137.673
 20
 307.0481
 11
 1138.655
 21
 309.0114
  0
LINE
  8
0
 62
 170 
 10
 1138.655
 20
 309.0114
 11
 1139.637
 21
 309.9931
  0
LINE
  8
0
 62
 170 
 10
 1139.637
 20
 309.9931
 11
 1141.6
 21
 310.9748
  0
LINE
  8
0
 62
 170 
 10
 1141.6
 20
 310.9748
 11
 1143.563
 21
 310.9748
  0
LINE
  8
0
 62
 170 
 10
 1143.563
 20
 310.9748
 11
 1145.527
 21
 309.9931
  0
LINE
  8
0
 62
 170 
 10
 1145.527
 20
 309.9931
 11
 1148.472
 21
 308.0297
  0
LINE
  8
0
 62
 170 
 10
 1148.472
 20
 308.0297
 11
 1158.289
 21
 298.2127
  0
LINE
  8
0
 62
 170 
 10
 1158.289
 20
 298.2127
 11
 1158.289
 21
 311.9564
  0
LINE
  8
0
 62
 170 
 10
 1156.325
 20
 319.81
 11
 1157.307
 21
 318.8283
  0
LINE
  8
0
 62
 170 
 10
 1157.307
 20
 318.8283
 11
 1158.289
 21
 319.81
  0
LINE
  8
0
 62
 170 
 10
 1158.289
 20
 319.81
 11
 1157.307
 21
 320.7917
  0
LINE
  8
0
 62
 170 
 10
 1157.307
 20
 320.7917
 11
 1156.325
 21
 319.81
  0
LINE
  8
0
 62
 170 
 10
 1137.673
 20
 333.5537
 11
 1138.655
 21
 330.6087
  0
LINE
  8
0
 62
 170 
 10
 1138.655
 20
 330.6087
 11
 1141.6
 21
 328.6453
  0
LINE
  8
0
 62
 170 
 10
 1141.6
 20
 328.6453
 11
 1146.509
 21
 327.6635
  0
LINE
  8
0
 62
 170 
 10
 1146.509
 20
 327.6635
 11
 1149.454
 21
 327.6635
  0
LINE
  8
0
 62
 170 
 10
 1149.454
 20
 327.6635
 11
 1154.362
 21
 328.6452
  0
LINE
  8
0
 62
 170 
 10
 1154.362
 20
 328.6452
 11
 1157.307
 21
 330.6086
  0
LINE
  8
0
 62
 170 
 10
 1157.307
 20
 330.6086
 11
 1158.289
 21
 333.5536
  0
LINE
  8
0
 62
 170 
 10
 1158.289
 20
 333.5536
 11
 1158.289
 21
 335.517
  0
LINE
  8
0
 62
 170 
 10
 1158.289
 20
 335.517
 11
 1157.307
 21
 338.4621
  0
LINE
  8
0
 62
 170 
 10
 1157.307
 20
 338.4621
 11
 1154.362
 21
 340.4255
  0
LINE
  8
0
 62
 170 
 10
 1154.362
 20
 340.4255
 11
 1149.454
 21
 341.4072
  0
LINE
  8
0
 62
 170 
 10
 1149.454
 20
 341.4072
 11
 1146.509
 21
 341.4072
  0
LINE
  8
0
 62
 170 
 10
 1146.509
 20
 341.4072
 11
 1141.6
 21
 340.4256
  0
LINE
  8
0
 62
 170 
 10
 1141.6
 20
 340.4256
 11
 1138.655
 21
 338.4622
  0
LINE
  8
0
 62
 170 
 10
 1138.655
 20
 338.4622
 11
 1137.673
 21
 335.5171
  0
LINE
  8
0
 62
 170 
 10
 1137.673
 20
 335.5171
 11
 1137.673
 21
 333.5537
  0
LINE
  8
0
 62
 170 
 10
 1137.673
 20
 353.1876
 11
 1138.655
 21
 350.2425
  0
LINE
  8
0
 62
 170 
 10
 1138.655
 20
 350.2425
 11
 1141.6
 21
 348.2791
  0
LINE
  8
0
 62
 170 
 10
 1141.6
 20
 348.2791
 11
 1146.509
 21
 347.2974
  0
LINE
  8
0
 62
 170 
 10
 1146.509
 20
 347.2974
 11
 1149.454
 21
 347.2974
  0
LINE
  8
0
 62
 170 
 10
 1149.454
 20
 347.2974
 11
 1154.362
 21
 348.2791
  0
LINE
  8
0
 62
 170 
 10
 1154.362
 20
 348.2791
 11
 1157.307
 21
 350.2424
  0
LINE
  8
0
 62
 170 
 10
 1157.307
 20
 350.2424
 11
 1158.289
 21
 353.1875
  0
LINE
  8
0
 62
 170 
 10
 1158.289
 20
 353.1875
 11
 1158.289
 21
 355.1509
  0
LINE
  8
0
 62
 170 
 10
 1158.289
 20
 355.1509
 11
 1157.307
 21
 358.0959
  0
LINE
  8
0
 62
 170 
 10
 1157.307
 20
 358.0959
 11
 1154.362
 21
 360.0594
  0
LINE
  8
0
 62
 170 
 10
 1154.362
 20
 360.0594
 11
 1149.454
 21
 361.0411
  0
LINE
  8
0
 62
 170 
 10
 1149.454
 20
 361.0411
 11
 1146.509
 21
 361.0411
  0
LINE
  8
0
 62
 170 
 10
 1146.509
 20
 361.0411
 11
 1141.6
 21
 360.0594
  0
LINE
  8
0
 62
 170 
 10
 1141.6
 20
 360.0594
 11
 1138.655
 21
 358.096
  0
LINE
  8
0
 62
 170 
 10
 1138.655
 20
 358.096
 11
 1137.673
 21
 355.151
  0
LINE
  8
0
 62
 170 
 10
 1137.673
 20
 355.151
 11
 1137.673
 21
 353.1876
  0
LINE
  8
0
 62
 170 
 10
 1144.407
 20
 475
 11
 1144.422
 21
 425
  0
LINE
  8
0
 62
 170 
 10
 1144.422
 20
 425
 11
 1144.428
 21
 375
  0
LINE
  8
0
 62
 170 
 10
 1144.428
 20
 375
 11
 1144.428
 21
 371.9224
  0
LINE
  8
0
 62
 170 
 10
 1144.425
 20
 256
 11
 1144.427
 21
 225
  0
LINE
  8
0
 62
 170 
 10
 1144.427
 20
 225
 11
 1144.43
 21
 175
  0
LINE
  8
0
 62
 170 
 10
 1144.43
 20
 175
 11
 1144.436
 21
 125
  0
LINE
  8
0
 62
 170 
 10
 1144.436
 20
 125
 11
 1144.436
 21
 75
  0
LINE
  8
0
 62
 170 
 10
 1144.436
 20
 75
 11
 1144.425
 21
 25
  0
LINE
  8
0
 62
 170 
 10
 1127.737
 20
 261.8905
 11
 1126.755
 21
 263.8539
  0
LINE
  8
0
 62
 170 
 10
 1126.755
 20
 263.8539
 11
 1123.81
 21
 266.7991
  0
LINE
  8
0
 62
 170 
 10
 1123.81
 20
 266.7991
 11
 1144.426
 21
 266.7986
  0
LINE
  8
0
 62
 170 
 10
 1128.719
 20
 279.5609
 11
 1127.737
 21
 279.561
  0
LINE
  8
0
 62
 170 
 10
 1127.737
 20
 279.561
 11
 1125.774
 21
 280.5427
  0
LINE
  8
0
 62
 170 
 10
 1125.774
 20
 280.5427
 11
 1124.792
 21
 281.5244
  0
LINE
  8
0
 62
 170 
 10
 1124.792
 20
 281.5244
 11
 1123.811
 21
 283.4878
  0
LINE
  8
0
 62
 170 
 10
 1123.811
 20
 283.4878
 11
 1123.811
 21
 287.4146
  0
LINE
  8
0
 62
 170 
 10
 1123.811
 20
 287.4146
 11
 1124.792
 21
 289.378
  0
LINE
  8
0
 62
 170 
 10
 1124.792
 20
 289.378
 11
 1125.774
 21
 290.3596
  0
LINE
  8
0
 62
 170 
 10
 1125.774
 20
 290.3596
 11
 1127.737
 21
 291.3413
  0
LINE
  8
0
 62
 170 
 10
 1127.737
 20
 291.3413
 11
 1129.701
 21
 291.3412
  0
LINE
  8
0
 62
 170 
 10
 1129.701
 20
 291.3412
 11
 1131.664
 21
 290.3595
  0
LINE
  8
0
 62
 170 
 10
 1131.664
 20
 290.3595
 11
 1134.609
 21
 288.3961
  0
LINE
  8
0
 62
 170 
 10
 1134.609
 20
 288.3961
 11
 1144.426
 21
 278.5789
  0
LINE
  8
0
 62
 170 
 10
 1144.426
 20
 278.5789
 11
 1144.426
 21
 292.3226
  0
LINE
  8
0
 62
 170 
 10
 1128.719
 20
 299.1948
 11
 1127.738
 21
 299.1948
  0
LINE
  8
0
 62
 170 
 10
 1127.738
 20
 299.1948
 11
 1125.774
 21
 300.1765
  0
LINE
  8
0
 62
 170 
 10
 1125.774
 20
 300.1765
 11
 1124.793
 21
 301.1583
  0
LINE
  8
0
 62
 170 
 10
 1124.793
 20
 301.1583
 11
 1123.811
 21
 303.1216
  0
LINE
  8
0
 62
 170 
 10
 1123.811
 20
 303.1216
 11
 1123.811
 21
 307.0484
  0
LINE
  8
0
 62
 170 
 10
 1123.811
 20
 307.0484
 11
 1124.793
 21
 309.0118
  0
LINE
  8
0
 62
 170 
 10
 1124.793
 20
 309.0118
 11
 1125.774
 21
 309.9935
  0
LINE
  8
0
 62
 170 
 10
 1125.774
 20
 309.9935
 11
 1127.738
 21
 310.9751
  0
LINE
  8
0
 62
 170 
 10
 1127.738
 20
 310.9751
 11
 1129.701
 21
 310.9751
  0
LINE
  8
0
 62
 170 
 10
 1129.701
 20
 310.9751
 11
 1131.665
 21
 309.9933
  0
LINE
  8
0
 62
 170 
 10
 1131.665
 20
 309.9933
 11
 1134.61
 21
 308.0299
  0
LINE
  8
0
 62
 170 
 10
 1134.61
 20
 308.0299
 11
 1144.426
 21
 298.2127
  0
LINE
  8
0
 62
 170 
 10
 1144.426
 20
 298.2127
 11
 1144.427
 21
 311.9564
  0
LINE
  8
0
 62
 170 
 10
 1142.463
 20
 319.81
 11
 1143.445
 21
 318.8283
  0
LINE
  8
0
 62
 170 
 10
 1143.445
 20
 318.8283
 11
 1144.427
 21
 319.81
  0
LINE
  8
0
 62
 170 
 10
 1144.427
 20
 319.81
 11
 1143.445
 21
 320.7917
  0
LINE
  8
0
 62
 170 
 10
 1143.445
 20
 320.7917
 11
 1142.463
 21
 319.81
  0
LINE
  8
0
 62
 170 
 10
 1128.72
 20
 328.6455
 11
 1127.738
 21
 328.6456
  0
LINE
  8
0
 62
 170 
 10
 1127.738
 20
 328.6456
 11
 1125.775
 21
 329.6273
  0
LINE
  8
0
 62
 170 
 10
 1125.775
 20
 329.6273
 11
 1124.793
 21
 330.609
  0
LINE
  8
0
 62
 170 
 10
 1124.793
 20
 330.609
 11
 1123.812
 21
 332.5724
  0
LINE
  8
0
 62
 170 
 10
 1123.812
 20
 332.5724
 11
 1123.812
 21
 336.4992
  0
LINE
  8
0
 62
 170 
 10
 1123.812
 20
 336.4992
 11
 1124.793
 21
 338.4626
  0
LINE
  8
0
 62
 170 
 10
 1124.793
 20
 338.4626
 11
 1125.775
 21
 339.4442
  0
LINE
  8
0
 62
 170 
 10
 1125.775
 20
 339.4442
 11
 1127.739
 21
 340.4259
  0
LINE
  8
0
 62
 170 
 10
 1127.739
 20
 340.4259
 11
 1129.702
 21
 340.4258
  0
LINE
  8
0
 62
 170 
 10
 1129.702
 20
 340.4258
 11
 1131.665
 21
 339.4441
  0
LINE
  8
0
 62
 170 
 10
 1131.665
 20
 339.4441
 11
 1134.61
 21
 337.4807
  0
LINE
  8
0
 62
 170 
 10
 1134.61
 20
 337.4807
 11
 1144.427
 21
 327.6635
  0
LINE
  8
0
 62
 170 
 10
 1144.427
 20
 327.6635
 11
 1144.427
 21
 341.4072
  0
LINE
  8
0
 62
 170 
 10
 1123.812
 20
 359.0781
 11
 1123.812
 21
 349.2612
  0
LINE
  8
0
 62
 170 
 10
 1123.812
 20
 349.2612
 11
 1132.647
 21
 348.2793
  0
LINE
  8
0
 62
 170 
 10
 1132.647
 20
 348.2793
 11
 1131.665
 21
 349.261
  0
LINE
  8
0
 62
 170 
 10
 1131.665
 20
 349.261
 11
 1130.684
 21
 352.2061
  0
LINE
  8
0
 62
 170 
 10
 1130.684
 20
 352.2061
 11
 1130.684
 21
 355.1512
  0
LINE
  8
0
 62
 170 
 10
 1130.684
 20
 355.1512
 11
 1131.666
 21
 358.0962
  0
LINE
  8
0
 62
 170 
 10
 1131.666
 20
 358.0962
 11
 1133.629
 21
 360.0596
  0
LINE
  8
0
 62
 170 
 10
 1133.629
 20
 360.0596
 11
 1136.574
 21
 361.0412
  0
LINE
  8
0
 62
 170 
 10
 1136.574
 20
 361.0412
 11
 1138.538
 21
 361.0412
  0
LINE
  8
0
 62
 170 
 10
 1138.538
 20
 361.0412
 11
 1141.483
 21
 360.0594
  0
LINE
  8
0
 62
 170 
 10
 1141.483
 20
 360.0594
 11
 1143.446
 21
 358.096
  0
LINE
  8
0
 62
 170 
 10
 1143.446
 20
 358.096
 11
 1144.428
 21
 355.1509
  0
LINE
  8
0
 62
 170 
 10
 1144.428
 20
 355.1509
 11
 1144.427
 21
 352.2058
  0
LINE
  8
0
 62
 170 
 10
 1144.427
 20
 352.2058
 11
 1143.446
 21
 349.2607
  0
LINE
  8
0
 62
 170 
 10
 1143.446
 20
 349.2607
 11
 1142.464
 21
 348.2791
  0
LINE
  8
0
 62
 170 
 10
 1142.464
 20
 348.2791
 11
 1140.501
 21
 347.2974
  0
LINE
  8
0
 62
 170 
 10
 1130.541
 20
 475
 11
 1130.561
 21
 425
  0
LINE
  8
0
 62
 170 
 10
 1130.561
 20
 425
 11
 1130.567
 21
 375
  0
LINE
  8
0
 62
 170 
 10
 1130.567
 20
 375
 11
 1130.567
 21
 371.9224
  0
LINE
  8
0
 62
 170 
 10
 1130.562
 20
 256
 11
 1130.563
 21
 225
  0
LINE
  8
0
 62
 170 
 10
 1130.563
 20
 225
 11
 1130.567
 21
 175
  0
LINE
  8
0
 62
 170 
 10
 1130.567
 20
 175
 11
 1130.573
 21
 125
  0
LINE
  8
0
 62
 170 
 10
 1130.573
 20
 125
 11
 1130.573
 21
 75
  0
LINE
  8
0
 62
 170 
 10
 1130.573
 20
 75
 11
 1130.562
 21
 25
  0
LINE
  8
0
 62
 170 
 10
 1113.874
 20
 261.8908
 11
 1112.892
 21
 263.8542
  0
LINE
  8
0
 62
 170 
 10
 1112.892
 20
 263.8542
 11
 1109.947
 21
 266.7994
  0
LINE
  8
0
 62
 170 
 10
 1109.947
 20
 266.7994
 11
 1130.563
 21
 266.7986
  0
LINE
  8
0
 62
 170 
 10
 1114.856
 20
 279.5612
 11
 1113.874
 21
 279.5613
  0
LINE
  8
0
 62
 170 
 10
 1113.874
 20
 279.5613
 11
 1111.911
 21
 280.543
  0
LINE
  8
0
 62
 170 
 10
 1111.911
 20
 280.543
 11
 1110.929
 21
 281.5248
  0
LINE
  8
0
 62
 170 
 10
 1110.929
 20
 281.5248
 11
 1109.948
 21
 283.4882
  0
LINE
  8
0
 62
 170 
 10
 1109.948
 20
 283.4882
 11
 1109.948
 21
 287.415
  0
LINE
  8
0
 62
 170 
 10
 1109.948
 20
 287.415
 11
 1110.93
 21
 289.3783
  0
LINE
  8
0
 62
 170 
 10
 1110.93
 20
 289.3783
 11
 1111.911
 21
 290.36
  0
LINE
  8
0
 62
 170 
 10
 1111.911
 20
 290.36
 11
 1113.875
 21
 291.3416
  0
LINE
  8
0
 62
 170 
 10
 1113.875
 20
 291.3416
 11
 1115.838
 21
 291.3415
  0
LINE
  8
0
 62
 170 
 10
 1115.838
 20
 291.3415
 11
 1117.802
 21
 290.3597
  0
LINE
  8
0
 62
 170 
 10
 1117.802
 20
 290.3597
 11
 1120.746
 21
 288.3962
  0
LINE
  8
0
 62
 170 
 10
 1120.746
 20
 288.3962
 11
 1130.563
 21
 278.5789
  0
LINE
  8
0
 62
 170 
 10
 1130.563
 20
 278.5789
 11
 1130.564
 21
 292.3226
  0
LINE
  8
0
 62
 170 
 10
 1114.857
 20
 299.1951
 11
 1113.875
 21
 299.1951
  0
LINE
  8
0
 62
 170 
 10
 1113.875
 20
 299.1951
 11
 1111.912
 21
 300.1769
  0
LINE
  8
0
 62
 170 
 10
 1111.912
 20
 300.1769
 11
 1110.93
 21
 301.1586
  0
LINE
  8
0
 62
 170 
 10
 1110.93
 20
 301.1586
 11
 1109.948
 21
 303.122
  0
LINE
  8
0
 62
 170 
 10
 1109.948
 20
 303.122
 11
 1109.949
 21
 307.0488
  0
LINE
  8
0
 62
 170 
 10
 1109.949
 20
 307.0488
 11
 1110.93
 21
 309.0121
  0
LINE
  8
0
 62
 170 
 10
 1110.93
 20
 309.0121
 11
 1111.912
 21
 309.9938
  0
LINE
  8
0
 62
 170 
 10
 1111.912
 20
 309.9938
 11
 1113.876
 21
 310.9754
  0
LINE
  8
0
 62
 170 
 10
 1113.876
 20
 310.9754
 11
 1115.839
 21
 310.9753
  0
LINE
  8
0
 62
 170 
 10
 1115.839
 20
 310.9753
 11
 1117.802
 21
 309.9936
  0
LINE
  8
0
 62
 170 
 10
 1117.802
 20
 309.9936
 11
 1120.747
 21
 308.0301
  0
LINE
  8
0
 62
 170 
 10
 1120.747
 20
 308.0301
 11
 1130.564
 21
 298.2127
  0
LINE
  8
0
 62
 170 
 10
 1130.564
 20
 298.2127
 11
 1130.564
 21
 311.9564
  0
LINE
  8
0
 62
 170 
 10
 1128.601
 20
 319.8101
 11
 1129.583
 21
 318.8283
  0
LINE
  8
0
 62
 170 
 10
 1129.583
 20
 318.8283
 11
 1130.565
 21
 319.81
  0
LINE
  8
0
 62
 170 
 10
 1130.565
 20
 319.81
 11
 1129.583
 21
 320.7917
  0
LINE
  8
0
 62
 170 
 10
 1129.583
 20
 320.7917
 11
 1128.601
 21
 319.8101
  0
LINE
  8
0
 62
 170 
 10
 1109.95
 20
 339.4446
 11
 1109.95
 21
 329.6277
  0
LINE
  8
0
 62
 170 
 10
 1109.95
 20
 329.6277
 11
 1118.785
 21
 328.6457
  0
LINE
  8
0
 62
 170 
 10
 1118.785
 20
 328.6457
 11
 1117.803
 21
 329.6274
  0
LINE
  8
0
 62
 170 
 10
 1117.803
 20
 329.6274
 11
 1116.822
 21
 332.5725
  0
LINE
  8
0
 62
 170 
 10
 1116.822
 20
 332.5725
 11
 1116.822
 21
 335.5176
  0
LINE
  8
0
 62
 170 
 10
 1116.822
 20
 335.5176
 11
 1117.803
 21
 338.4626
  0
LINE
  8
0
 62
 170 
 10
 1117.803
 20
 338.4626
 11
 1119.767
 21
 340.4259
  0
LINE
  8
0
 62
 170 
 10
 1119.767
 20
 340.4259
 11
 1122.712
 21
 341.4075
  0
LINE
  8
0
 62
 170 
 10
 1122.712
 20
 341.4075
 11
 1124.675
 21
 341.4074
  0
LINE
  8
0
 62
 170 
 10
 1124.675
 20
 341.4074
 11
 1127.62
 21
 340.4256
  0
LINE
  8
0
 62
 170 
 10
 1127.62
 20
 340.4256
 11
 1129.584
 21
 338.4622
  0
LINE
  8
0
 62
 170 
 10
 1129.584
 20
 338.4622
 11
 1130.565
 21
 335.517
  0
LINE
  8
0
 62
 170 
 10
 1130.565
 20
 335.517
 11
 1130.565
 21
 332.572
  0
LINE
  8
0
 62
 170 
 10
 1130.565
 20
 332.572
 11
 1129.583
 21
 329.6269
  0
LINE
  8
0
 62
 170 
 10
 1129.583
 20
 329.6269
 11
 1128.602
 21
 328.6453
  0
LINE
  8
0
 62
 170 
 10
 1128.602
 20
 328.6453
 11
 1126.638
 21
 327.6637
  0
LINE
  8
0
 62
 170 
 10
 1109.95
 20
 353.1883
 11
 1110.932
 21
 350.2432
  0
LINE
  8
0
 62
 170 
 10
 1110.932
 20
 350.2432
 11
 1113.877
 21
 348.2797
  0
LINE
  8
0
 62
 170 
 10
 1113.877
 20
 348.2797
 11
 1118.786
 21
 347.2978
  0
LINE
  8
0
 62
 170 
 10
 1118.786
 20
 347.2978
 11
 1121.731
 21
 347.2977
  0
LINE
  8
0
 62
 170 
 10
 1121.731
 20
 347.2977
 11
 1126.639
 21
 348.2792
  0
LINE
  8
0
 62
 170 
 10
 1126.639
 20
 348.2792
 11
 1129.584
 21
 350.2425
  0
LINE
  8
0
 62
 170 
 10
 1129.584
 20
 350.2425
 11
 1130.566
 21
 353.1875
  0
LINE
  8
0
 62
 170 
 10
 1130.566
 20
 353.1875
 11
 1130.566
 21
 355.1509
  0
LINE
  8
0
 62
 170 
 10
 1130.566
 20
 355.1509
 11
 1129.584
 21
 358.096
  0
LINE
  8
0
 62
 170 
 10
 1129.584
 20
 358.096
 11
 1126.64
 21
 360.0595
  0
LINE
  8
0
 62
 170 
 10
 1126.64
 20
 360.0595
 11
 1121.731
 21
 361.0414
  0
LINE
  8
0
 62
 170 
 10
 1121.731
 20
 361.0414
 11
 1118.786
 21
 361.0415
  0
LINE
  8
0
 62
 170 
 10
 1118.786
 20
 361.0415
 11
 1113.878
 21
 360.06
  0
LINE
  8
0
 62
 170 
 10
 1113.878
 20
 360.06
 11
 1110.932
 21
 358.0967
  0
LINE
  8
0
 62
 170 
 10
 1110.932
 20
 358.0967
 11
 1109.951
 21
 355.1517
  0
LINE
  8
0
 62
 170 
 10
 1109.951
 20
 355.1517
 11
 1109.95
 21
 353.1883
  0
LINE
  8
0
 62
 170 
 10
 1115.684
 20
 475
 11
 1115.71
 21
 425
  0
LINE
  8
0
 62
 170 
 10
 1115.71
 20
 425
 11
 1115.715
 21
 375
  0
LINE
  8
0
 62
 170 
 10
 1115.715
 20
 375
 11
 1115.715
 21
 371.9224
  0
LINE
  8
0
 62
 170 
 10
 1115.708
 20
 256
 11
 1115.709
 21
 225
  0
LINE
  8
0
 62
 170 
 10
 1115.709
 20
 225
 11
 1115.714
 21
 175
  0
LINE
  8
0
 62
 170 
 10
 1115.714
 20
 175
 11
 1115.72
 21
 125
  0
LINE
  8
0
 62
 170 
 10
 1115.72
 20
 125
 11
 1115.72
 21
 75
  0
LINE
  8
0
 62
 170 
 10
 1115.72
 20
 75
 11
 1115.711
 21
 25
  0
LINE
  8
0
 62
 170 
 10
 1099.02
 20
 261.8911
 11
 1098.038
 21
 263.8546
  0
LINE
  8
0
 62
 170 
 10
 1098.038
 20
 263.8546
 11
 1095.093
 21
 266.7998
  0
LINE
  8
0
 62
 170 
 10
 1095.093
 20
 266.7998
 11
 1115.709
 21
 266.7986
  0
LINE
  8
0
 62
 170 
 10
 1100.003
 20
 279.5615
 11
 1099.021
 21
 279.5616
  0
LINE
  8
0
 62
 170 
 10
 1099.021
 20
 279.5616
 11
 1097.057
 21
 280.5434
  0
LINE
  8
0
 62
 170 
 10
 1097.057
 20
 280.5434
 11
 1096.076
 21
 281.5251
  0
LINE
  8
0
 62
 170 
 10
 1096.076
 20
 281.5251
 11
 1095.094
 21
 283.4886
  0
LINE
  8
0
 62
 170 
 10
 1095.094
 20
 283.4886
 11
 1095.095
 21
 287.4153
  0
LINE
  8
0
 62
 170 
 10
 1095.095
 20
 287.4153
 11
 1096.076
 21
 289.3787
  0
LINE
  8
0
 62
 170 
 10
 1096.076
 20
 289.3787
 11
 1097.058
 21
 290.3603
  0
LINE
  8
0
 62
 170 
 10
 1097.058
 20
 290.3603
 11
 1099.021
 21
 291.3419
  0
LINE
  8
0
 62
 170 
 10
 1099.021
 20
 291.3419
 11
 1100.985
 21
 291.3418
  0
LINE
  8
0
 62
 170 
 10
 1100.985
 20
 291.3418
 11
 1102.948
 21
 290.36
  0
LINE
  8
0
 62
 170 
 10
 1102.948
 20
 290.36
 11
 1105.893
 21
 288.3964
  0
LINE
  8
0
 62
 170 
 10
 1105.893
 20
 288.3964
 11
 1115.71
 21
 278.5789
  0
LINE
  8
0
 62
 170 
 10
 1115.71
 20
 278.5789
 11
 1115.71
 21
 292.3226
  0
LINE
  8
0
 62
 170 
 10
 1100.004
 20
 299.1953
 11
 1099.022
 21
 299.1954
  0
LINE
  8
0
 62
 170 
 10
 1099.022
 20
 299.1954
 11
 1097.059
 21
 300.1772
  0
LINE
  8
0
 62
 170 
 10
 1097.059
 20
 300.1772
 11
 1096.077
 21
 301.159
  0
LINE
  8
0
 62
 170 
 10
 1096.077
 20
 301.159
 11
 1095.095
 21
 303.1224
  0
LINE
  8
0
 62
 170 
 10
 1095.095
 20
 303.1224
 11
 1095.096
 21
 307.0492
  0
LINE
  8
0
 62
 170 
 10
 1095.096
 20
 307.0492
 11
 1096.078
 21
 309.0125
  0
LINE
  8
0
 62
 170 
 10
 1096.078
 20
 309.0125
 11
 1097.059
 21
 309.9941
  0
LINE
  8
0
 62
 170 
 10
 1097.059
 20
 309.9941
 11
 1099.023
 21
 310.9757
  0
LINE
  8
0
 62
 170 
 10
 1099.023
 20
 310.9757
 11
 1100.986
 21
 310.9756
  0
LINE
  8
0
 62
 170 
 10
 1100.986
 20
 310.9756
 11
 1102.949
 21
 309.9938
  0
LINE
  8
0
 62
 170 
 10
 1102.949
 20
 309.9938
 11
 1105.894
 21
 308.0302
  0
LINE
  8
0
 62
 170 
 10
 1105.894
 20
 308.0302
 11
 1115.711
 21
 298.2127
  0
LINE
  8
0
 62
 170 
 10
 1115.711
 20
 298.2127
 11
 1115.712
 21
 311.9564
  0
LINE
  8
0
 62
 170 
 10
 1113.749
 20
 319.8101
 11
 1114.73
 21
 318.8283
  0
LINE
  8
0
 62
 170 
 10
 1114.73
 20
 318.8283
 11
 1115.712
 21
 319.81
  0
LINE
  8
0
 62
 170 
 10
 1115.712
 20
 319.81
 11
 1114.73
 21
 320.7917
  0
LINE
  8
0
 62
 170 
 10
 1114.73
 20
 320.7917
 11
 1113.749
 21
 319.8101
  0
LINE
  8
0
 62
 170 
 10
 1095.098
 20
 341.4084
 11
 1115.713
 21
 331.5903
  0
LINE
  8
0
 62
 170 
 10
 1095.097
 20
 327.6647
 11
 1095.098
 21
 341.4084
  0
LINE
  8
0
 62
 170 
 10
 1095.099
 20
 359.0788
 11
 1095.098
 21
 349.2619
  0
LINE
  8
0
 62
 170 
 10
 1095.098
 20
 349.2619
 11
 1103.933
 21
 348.2797
  0
LINE
  8
0
 62
 170 
 10
 1103.933
 20
 348.2797
 11
 1102.952
 21
 349.2615
  0
LINE
  8
0
 62
 170 
 10
 1102.952
 20
 349.2615
 11
 1101.97
 21
 352.2066
  0
LINE
  8
0
 62
 170 
 10
 1101.97
 20
 352.2066
 11
 1101.97
 21
 355.1517
  0
LINE
  8
0
 62
 170 
 10
 1101.97
 20
 355.1517
 11
 1102.952
 21
 358.0967
  0
LINE
  8
0
 62
 170 
 10
 1102.952
 20
 358.0967
 11
 1104.916
 21
 360.06
  0
LINE
  8
0
 62
 170 
 10
 1104.916
 20
 360.06
 11
 1107.861
 21
 361.0415
  0
LINE
  8
0
 62
 170 
 10
 1107.861
 20
 361.0415
 11
 1109.824
 21
 361.0414
  0
LINE
  8
0
 62
 170 
 10
 1109.824
 20
 361.0414
 11
 1112.769
 21
 360.0595
  0
LINE
  8
0
 62
 170 
 10
 1112.769
 20
 360.0595
 11
 1114.733
 21
 358.096
  0
LINE
  8
0
 62
 170 
 10
 1114.733
 20
 358.096
 11
 1115.714
 21
 355.1509
  0
LINE
  8
0
 62
 170 
 10
 1115.714
 20
 355.1509
 11
 1115.714
 21
 352.2058
  0
LINE
  8
0
 62
 170 
 10
 1115.714
 20
 352.2058
 11
 1114.732
 21
 349.2608
  0
LINE
  8
0
 62
 170 
 10
 1114.732
 20
 349.2608
 11
 1113.75
 21
 348.2791
  0
LINE
  8
0
 62
 170 
 10
 1113.75
 20
 348.2791
 11
 1111.787
 21
 347.2976
  0
LINE
  8
0
 62
 170 
 10
 1100.168
 20
 475
 11
 1100.196
 21
 425
  0
LINE
  8
0
 62
 170 
 10
 1100.196
 20
 425
 11
 1100.199
 21
 375
  0
LINE
  8
0
 62
 170 
 10
 1100.199
 20
 375
 11
 1100.198
 21
 371.9224
  0
LINE
  8
0
 62
 170 
 10
 1100.191
 20
 256
 11
 1100.193
 21
 225
  0
LINE
  8
0
 62
 170 
 10
 1100.193
 20
 225
 11
 1100.196
 21
 175
  0
LINE
  8
0
 62
 170 
 10
 1100.196
 20
 175
 11
 1100.202
 21
 125
  0
LINE
  8
0
 62
 170 
 10
 1100.202
 20
 125
 11
 1100.202
 21
 75
  0
LINE
  8
0
 62
 170 
 10
 1100.202
 20
 75
 11
 1100.199
 21
 25
  0
LINE
  8
0
 62
 170 
 10
 1083.502
 20
 261.8913
 11
 1082.521
 21
 263.8547
  0
LINE
  8
0
 62
 170 
 10
 1082.521
 20
 263.8547
 11
 1079.576
 21
 266.8
  0
LINE
  8
0
 62
 170 
 10
 1079.576
 20
 266.8
 11
 1100.191
 21
 266.7986
  0
LINE
  8
0
 62
 170 
 10
 1084.485
 20
 279.5616
 11
 1083.504
 21
 279.5617
  0
LINE
  8
0
 62
 170 
 10
 1083.504
 20
 279.5617
 11
 1081.54
 21
 280.5435
  0
LINE
  8
0
 62
 170 
 10
 1081.54
 20
 280.5435
 11
 1080.559
 21
 281.5253
  0
LINE
  8
0
 62
 170 
 10
 1080.559
 20
 281.5253
 11
 1079.577
 21
 283.4887
  0
LINE
  8
0
 62
 170 
 10
 1079.577
 20
 283.4887
 11
 1079.577
 21
 287.4155
  0
LINE
  8
0
 62
 170 
 10
 1079.577
 20
 287.4155
 11
 1080.559
 21
 289.3788
  0
LINE
  8
0
 62
 170 
 10
 1080.559
 20
 289.3788
 11
 1081.541
 21
 290.3604
  0
LINE
  8
0
 62
 170 
 10
 1081.541
 20
 290.3604
 11
 1083.504
 21
 291.342
  0
LINE
  8
0
 62
 170 
 10
 1083.504
 20
 291.342
 11
 1085.468
 21
 291.3419
  0
LINE
  8
0
 62
 170 
 10
 1085.468
 20
 291.3419
 11
 1087.431
 21
 290.3601
  0
LINE
  8
0
 62
 170 
 10
 1087.431
 20
 290.3601
 11
 1090.376
 21
 288.3965
  0
LINE
  8
0
 62
 170 
 10
 1090.376
 20
 288.3965
 11
 1100.192
 21
 278.5789
  0
LINE
  8
0
 62
 170 
 10
 1100.192
 20
 278.5789
 11
 1100.193
 21
 292.3226
  0
LINE
  8
0
 62
 170 
 10
 1079.578
 20
 300.1775
 11
 1079.579
 21
 310.9761
  0
LINE
  8
0
 62
 170 
 10
 1079.579
 20
 310.9761
 11
 1087.432
 21
 305.0854
  0
LINE
  8
0
 62
 170 
 10
 1087.432
 20
 305.0854
 11
 1087.432
 21
 308.0305
  0
LINE
  8
0
 62
 170 
 10
 1087.432
 20
 308.0305
 11
 1088.414
 21
 309.9938
  0
LINE
  8
0
 62
 170 
 10
 1088.414
 20
 309.9938
 11
 1089.396
 21
 310.9755
  0
LINE
  8
0
 62
 170 
 10
 1089.396
 20
 310.9755
 11
 1092.341
 21
 311.957
  0
LINE
  8
0
 62
 170 
 10
 1092.341
 20
 311.957
 11
 1094.304
 21
 311.9568
  0
LINE
  8
0
 62
 170 
 10
 1094.304
 20
 311.9568
 11
 1097.249
 21
 310.9749
  0
LINE
  8
0
 62
 170 
 10
 1097.249
 20
 310.9749
 11
 1099.213
 21
 309.0114
  0
LINE
  8
0
 62
 170 
 10
 1099.213
 20
 309.0114
 11
 1100.194
 21
 306.0663
  0
LINE
  8
0
 62
 170 
 10
 1100.194
 20
 306.0663
 11
 1100.194
 21
 303.1212
  0
LINE
  8
0
 62
 170 
 10
 1100.194
 20
 303.1212
 11
 1099.212
 21
 300.1762
  0
LINE
  8
0
 62
 170 
 10
 1099.212
 20
 300.1762
 11
 1098.23
 21
 299.1946
  0
LINE
  8
0
 62
 170 
 10
 1098.23
 20
 299.1946
 11
 1096.267
 21
 298.213
  0
LINE
  8
0
 62
 170 
 10
 1098.232
 20
 319.8101
 11
 1099.213
 21
 318.8283
  0
LINE
  8
0
 62
 170 
 10
 1099.213
 20
 318.8283
 11
 1100.195
 21
 319.81
  0
LINE
  8
0
 62
 170 
 10
 1100.195
 20
 319.81
 11
 1099.213
 21
 320.7917
  0
LINE
  8
0
 62
 170 
 10
 1099.213
 20
 320.7917
 11
 1098.232
 21
 319.8101
  0
LINE
  8
0
 62
 170 
 10
 1079.58
 20
 333.555
 11
 1080.562
 21
 330.6099
  0
LINE
  8
0
 62
 170 
 10
 1080.562
 20
 330.6099
 11
 1083.507
 21
 328.6463
  0
LINE
  8
0
 62
 170 
 10
 1083.507
 20
 328.6463
 11
 1088.415
 21
 327.6643
  0
LINE
  8
0
 62
 170 
 10
 1088.415
 20
 327.6643
 11
 1091.36
 21
 327.6641
  0
LINE
  8
0
 62
 170 
 10
 1091.36
 20
 327.6641
 11
 1096.269
 21
 328.6454
  0
LINE
  8
0
 62
 170 
 10
 1096.269
 20
 328.6454
 11
 1099.214
 21
 330.6086
  0
LINE
  8
0
 62
 170 
 10
 1099.214
 20
 330.6086
 11
 1100.196
 21
 333.5536
  0
LINE
  8
0
 62
 170 
 10
 1100.196
 20
 333.5536
 11
 1100.196
 21
 335.517
  0
LINE
  8
0
 62
 170 
 10
 1100.196
 20
 335.517
 11
 1099.214
 21
 338.4622
  0
LINE
  8
0
 62
 170 
 10
 1099.214
 20
 338.4622
 11
 1096.27
 21
 340.4258
  0
LINE
  8
0
 62
 170 
 10
 1096.27
 20
 340.4258
 11
 1091.361
 21
 341.4078
  0
LINE
  8
0
 62
 170 
 10
 1091.361
 20
 341.4078
 11
 1088.416
 21
 341.408
  0
LINE
  8
0
 62
 170 
 10
 1088.416
 20
 341.408
 11
 1083.508
 21
 340.4266
  0
LINE
  8
0
 62
 170 
 10
 1083.508
 20
 340.4266
 11
 1080.562
 21
 338.4634
  0
LINE
  8
0
 62
 170 
 10
 1080.562
 20
 338.4634
 11
 1079.58
 21
 335.5184
  0
LINE
  8
0
 62
 170 
 10
 1079.58
 20
 335.5184
 11
 1079.58
 21
 333.555
  0
LINE
  8
0
 62
 170 
 10
 1079.582
 20
 353.1889
 11
 1080.563
 21
 350.2437
  0
LINE
  8
0
 62
 170 
 10
 1080.563
 20
 350.2437
 11
 1083.508
 21
 348.2802
  0
LINE
  8
0
 62
 170 
 10
 1083.508
 20
 348.2802
 11
 1088.417
 21
 347.2981
  0
LINE
  8
0
 62
 170 
 10
 1088.417
 20
 347.2981
 11
 1091.362
 21
 347.2979
  0
LINE
  8
0
 62
 170 
 10
 1091.362
 20
 347.2979
 11
 1096.27
 21
 348.2793
  0
LINE
  8
0
 62
 170 
 10
 1096.27
 20
 348.2793
 11
 1099.215
 21
 350.2425
  0
LINE
  8
0
 62
 170 
 10
 1099.215
 20
 350.2425
 11
 1100.197
 21
 353.1875
  0
LINE
  8
0
 62
 170 
 10
 1100.197
 20
 353.1875
 11
 1100.197
 21
 355.1509
  0
LINE
  8
0
 62
 170 
 10
 1100.197
 20
 355.1509
 11
 1099.216
 21
 358.096
  0
LINE
  8
0
 62
 170 
 10
 1099.216
 20
 358.096
 11
 1096.271
 21
 360.0596
  0
LINE
  8
0
 62
 170 
 10
 1096.271
 20
 360.0596
 11
 1091.362
 21
 361.0416
  0
LINE
  8
0
 62
 170 
 10
 1091.362
 20
 361.0416
 11
 1088.417
 21
 361.0418
  0
LINE
  8
0
 62
 170 
 10
 1088.417
 20
 361.0418
 11
 1083.509
 21
 360.0605
  0
LINE
  8
0
 62
 170 
 10
 1083.509
 20
 360.0605
 11
 1080.564
 21
 358.0973
  0
LINE
  8
0
 62
 170 
 10
 1080.564
 20
 358.0973
 11
 1079.582
 21
 355.1523
  0
LINE
  8
0
 62
 170 
 10
 1079.582
 20
 355.1523
 11
 1079.582
 21
 353.1889
  0
LINE
  8
0
 62
 170 
 10
 1084.651
 20
 475
 11
 1084.681
 21
 425
  0
LINE
  8
0
 62
 170 
 10
 1084.681
 20
 425
 11
 1084.682
 21
 375
  0
LINE
  8
0
 62
 170 
 10
 1084.682
 20
 375
 11
 1084.682
 21
 371.9224
  0
LINE
  8
0
 62
 170 
 10
 1084.673
 20
 256
 11
 1084.676
 21
 225
  0
LINE
  8
0
 62
 170 
 10
 1084.676
 20
 225
 11
 1084.677
 21
 175
  0
LINE
  8
0
 62
 170 
 10
 1084.677
 20
 175
 11
 1084.683
 21
 125
  0
LINE
  8
0
 62
 170 
 10
 1084.683
 20
 125
 11
 1084.683
 21
 75
  0
LINE
  8
0
 62
 170 
 10
 1084.683
 20
 75
 11
 1084.686
 21
 25
  0
LINE
  8
0
 62
 170 
 10
 1067.985
 20
 261.8914
 11
 1067.003
 21
 263.8549
  0
LINE
  8
0
 62
 170 
 10
 1067.003
 20
 263.8549
 11
 1064.058
 21
 266.8002
  0
LINE
  8
0
 62
 170 
 10
 1064.058
 20
 266.8002
 11
 1084.674
 21
 266.7986
  0
LINE
  8
0
 62
 170 
 10
 1068.968
 20
 279.5618
 11
 1067.986
 21
 279.5619
  0
LINE
  8
0
 62
 170 
 10
 1067.986
 20
 279.5619
 11
 1066.023
 21
 280.5437
  0
LINE
  8
0
 62
 170 
 10
 1066.023
 20
 280.5437
 11
 1065.041
 21
 281.5255
  0
LINE
  8
0
 62
 170 
 10
 1065.041
 20
 281.5255
 11
 1064.06
 21
 283.489
  0
LINE
  8
0
 62
 170 
 10
 1064.06
 20
 283.489
 11
 1064.06
 21
 287.4157
  0
LINE
  8
0
 62
 170 
 10
 1064.06
 20
 287.4157
 11
 1065.042
 21
 289.379
  0
LINE
  8
0
 62
 170 
 10
 1065.042
 20
 289.379
 11
 1066.023
 21
 290.3607
  0
LINE
  8
0
 62
 170 
 10
 1066.023
 20
 290.3607
 11
 1067.987
 21
 291.3422
  0
LINE
  8
0
 62
 170 
 10
 1067.987
 20
 291.3422
 11
 1069.95
 21
 291.342
  0
LINE
  8
0
 62
 170 
 10
 1069.95
 20
 291.342
 11
 1071.914
 21
 290.3602
  0
LINE
  8
0
 62
 170 
 10
 1071.914
 20
 290.3602
 11
 1074.859
 21
 288.3966
  0
LINE
  8
0
 62
 170 
 10
 1074.859
 20
 288.3966
 11
 1084.675
 21
 278.5789
  0
LINE
  8
0
 62
 170 
 10
 1084.675
 20
 278.5789
 11
 1084.676
 21
 292.3226
  0
LINE
  8
0
 62
 170 
 10
 1064.061
 20
 300.1777
 11
 1064.062
 21
 310.9763
  0
LINE
  8
0
 62
 170 
 10
 1064.062
 20
 310.9763
 11
 1071.915
 21
 305.0856
  0
LINE
  8
0
 62
 170 
 10
 1071.915
 20
 305.0856
 11
 1071.915
 21
 308.0306
  0
LINE
  8
0
 62
 170 
 10
 1071.915
 20
 308.0306
 11
 1072.897
 21
 309.994
  0
LINE
  8
0
 62
 170 
 10
 1072.897
 20
 309.994
 11
 1073.879
 21
 310.9756
  0
LINE
  8
0
 62
 170 
 10
 1073.879
 20
 310.9756
 11
 1076.824
 21
 311.957
  0
LINE
  8
0
 62
 170 
 10
 1076.824
 20
 311.957
 11
 1078.787
 21
 311.9569
  0
LINE
  8
0
 62
 170 
 10
 1078.787
 20
 311.9569
 11
 1081.732
 21
 310.975
  0
LINE
  8
0
 62
 170 
 10
 1081.732
 20
 310.975
 11
 1083.695
 21
 309.0114
  0
LINE
  8
0
 62
 170 
 10
 1083.695
 20
 309.0114
 11
 1084.677
 21
 306.0663
  0
LINE
  8
0
 62
 170 
 10
 1084.677
 20
 306.0663
 11
 1084.677
 21
 303.1212
  0
LINE
  8
0
 62
 170 
 10
 1084.677
 20
 303.1212
 11
 1083.695
 21
 300.1762
  0
LINE
  8
0
 62
 170 
 10
 1083.695
 20
 300.1762
 11
 1082.713
 21
 299.1946
  0
LINE
  8
0
 62
 170 
 10
 1082.713
 20
 299.1946
 11
 1080.749
 21
 298.213
  0
LINE
  8
0
 62
 170 
 10
 1082.714
 20
 319.8101
 11
 1083.696
 21
 318.8283
  0
LINE
  8
0
 62
 170 
 10
 1083.696
 20
 318.8283
 11
 1084.678
 21
 319.81
  0
LINE
  8
0
 62
 170 
 10
 1084.678
 20
 319.81
 11
 1083.696
 21
 320.7917
  0
LINE
  8
0
 62
 170 
 10
 1083.696
 20
 320.7917
 11
 1082.714
 21
 319.8101
  0
LINE
  8
0
 62
 170 
 10
 1068.971
 20
 328.6464
 11
 1067.99
 21
 328.6465
  0
LINE
  8
0
 62
 170 
 10
 1067.99
 20
 328.6465
 11
 1066.026
 21
 329.6283
  0
LINE
  8
0
 62
 170 
 10
 1066.026
 20
 329.6283
 11
 1065.045
 21
 330.6101
  0
LINE
  8
0
 62
 170 
 10
 1065.045
 20
 330.6101
 11
 1064.063
 21
 332.5735
  0
LINE
  8
0
 62
 170 
 10
 1064.063
 20
 332.5735
 11
 1064.064
 21
 336.5003
  0
LINE
  8
0
 62
 170 
 10
 1064.064
 20
 336.5003
 11
 1065.045
 21
 338.4636
  0
LINE
  8
0
 62
 170 
 10
 1065.045
 20
 338.4636
 11
 1066.027
 21
 339.4453
  0
LINE
  8
0
 62
 170 
 10
 1066.027
 20
 339.4453
 11
 1067.991
 21
 340.4268
  0
LINE
  8
0
 62
 170 
 10
 1067.991
 20
 340.4268
 11
 1069.954
 21
 340.4266
  0
LINE
  8
0
 62
 170 
 10
 1069.954
 20
 340.4266
 11
 1071.917
 21
 339.4448
  0
LINE
  8
0
 62
 170 
 10
 1071.917
 20
 339.4448
 11
 1074.862
 21
 337.4812
  0
LINE
  8
0
 62
 170 
 10
 1074.862
 20
 337.4812
 11
 1084.678
 21
 327.6635
  0
LINE
  8
0
 62
 170 
 10
 1084.678
 20
 327.6635
 11
 1084.68
 21
 341.4072
  0
LINE
  8
0
 62
 170 
 10
 1064.065
 20
 359.0792
 11
 1064.065
 21
 349.2623
  0
LINE
  8
0
 62
 170 
 10
 1064.065
 20
 349.2623
 11
 1072.9
 21
 348.2799
  0
LINE
  8
0
 62
 170 
 10
 1072.9
 20
 348.2799
 11
 1071.918
 21
 349.2617
  0
LINE
  8
0
 62
 170 
 10
 1071.918
 20
 349.2617
 11
 1070.937
 21
 352.2068
  0
LINE
  8
0
 62
 170 
 10
 1070.937
 20
 352.2068
 11
 1070.937
 21
 355.1519
  0
LINE
  8
0
 62
 170 
 10
 1070.937
 20
 355.1519
 11
 1071.919
 21
 358.0969
  0
LINE
  8
0
 62
 170 
 10
 1071.919
 20
 358.0969
 11
 1073.882
 21
 360.0602
  0
LINE
  8
0
 62
 170 
 10
 1073.882
 20
 360.0602
 11
 1076.828
 21
 361.0416
  0
LINE
  8
0
 62
 170 
 10
 1076.828
 20
 361.0416
 11
 1078.791
 21
 361.0415
  0
LINE
  8
0
 62
 170 
 10
 1078.791
 20
 361.0415
 11
 1081.736
 21
 360.0596
  0
LINE
  8
0
 62
 170 
 10
 1081.736
 20
 360.0596
 11
 1083.699
 21
 358.096
  0
LINE
  8
0
 62
 170 
 10
 1083.699
 20
 358.096
 11
 1084.681
 21
 355.1509
  0
LINE
  8
0
 62
 170 
 10
 1084.681
 20
 355.1509
 11
 1084.68
 21
 352.2058
  0
LINE
  8
0
 62
 170 
 10
 1084.68
 20
 352.2058
 11
 1083.698
 21
 349.2608
  0
LINE
  8
0
 62
 170 
 10
 1083.698
 20
 349.2608
 11
 1082.717
 21
 348.2792
  0
LINE
  8
0
 62
 170 
 10
 1082.717
 20
 348.2792
 11
 1080.753
 21
 347.2976
  0
LINE
  8
0
 62
 170 
 10
 1068.495
 20
 475
 11
 1068.527
 21
 425
  0
LINE
  8
0
 62
 170 
 10
 1068.527
 20
 425
 11
 1068.526
 21
 375
  0
LINE
  8
0
 62
 170 
 10
 1068.526
 20
 375
 11
 1068.526
 21
 371.9224
  0
LINE
  8
0
 62
 170 
 10
 1068.516
 20
 256
 11
 1068.52
 21
 225
  0
LINE
  8
0
 62
 170 
 10
 1068.52
 20
 225
 11
 1068.521
 21
 175
  0
LINE
  8
0
 62
 170 
 10
 1068.521
 20
 175
 11
 1068.527
 21
 125
  0
LINE
  8
0
 62
 170 
 10
 1068.527
 20
 125
 11
 1068.527
 21
 75
  0
LINE
  8
0
 62
 170 
 10
 1068.527
 20
 75
 11
 1068.536
 21
 25
  0
LINE
  8
0
 62
 170 
 10
 1051.828
 20
 261.8916
 11
 1050.846
 21
 263.855
  0
LINE
  8
0
 62
 170 
 10
 1050.846
 20
 263.855
 11
 1047.901
 21
 266.8004
  0
LINE
  8
0
 62
 170 
 10
 1047.901
 20
 266.8004
 11
 1068.517
 21
 266.7986
  0
LINE
  8
0
 62
 170 
 10
 1052.811
 20
 279.5619
 11
 1051.829
 21
 279.562
  0
LINE
  8
0
 62
 170 
 10
 1051.829
 20
 279.562
 11
 1049.866
 21
 280.5439
  0
LINE
  8
0
 62
 170 
 10
 1049.866
 20
 280.5439
 11
 1048.884
 21
 281.5256
  0
LINE
  8
0
 62
 170 
 10
 1048.884
 20
 281.5256
 11
 1047.903
 21
 283.4891
  0
LINE
  8
0
 62
 170 
 10
 1047.903
 20
 283.4891
 11
 1047.903
 21
 287.4159
  0
LINE
  8
0
 62
 170 
 10
 1047.903
 20
 287.4159
 11
 1048.885
 21
 289.3792
  0
LINE
  8
0
 62
 170 
 10
 1048.885
 20
 289.3792
 11
 1049.867
 21
 290.3608
  0
LINE
  8
0
 62
 170 
 10
 1049.867
 20
 290.3608
 11
 1051.83
 21
 291.3423
  0
LINE
  8
0
 62
 170 
 10
 1051.83
 20
 291.3423
 11
 1053.793
 21
 291.3421
  0
LINE
  8
0
 62
 170 
 10
 1053.793
 20
 291.3421
 11
 1055.757
 21
 290.3603
  0
LINE
  8
0
 62
 170 
 10
 1055.757
 20
 290.3603
 11
 1058.702
 21
 288.3967
  0
LINE
  8
0
 62
 170 
 10
 1058.702
 20
 288.3967
 11
 1068.518
 21
 278.5789
  0
LINE
  8
0
 62
 170 
 10
 1068.518
 20
 278.5789
 11
 1068.519
 21
 292.3226
  0
LINE
  8
0
 62
 170 
 10
 1047.904
 20
 300.1779
 11
 1047.905
 21
 310.9765
  0
LINE
  8
0
 62
 170 
 10
 1047.905
 20
 310.9765
 11
 1055.758
 21
 305.0857
  0
LINE
  8
0
 62
 170 
 10
 1055.758
 20
 305.0857
 11
 1055.758
 21
 308.0307
  0
LINE
  8
0
 62
 170 
 10
 1055.758
 20
 308.0307
 11
 1056.74
 21
 309.994
  0
LINE
  8
0
 62
 170 
 10
 1056.74
 20
 309.994
 11
 1057.722
 21
 310.9756
  0
LINE
  8
0
 62
 170 
 10
 1057.722
 20
 310.9756
 11
 1060.667
 21
 311.9571
  0
LINE
  8
0
 62
 170 
 10
 1060.667
 20
 311.9571
 11
 1062.63
 21
 311.9569
  0
LINE
  8
0
 62
 170 
 10
 1062.63
 20
 311.9569
 11
 1065.575
 21
 310.975
  0
LINE
  8
0
 62
 170 
 10
 1065.575
 20
 310.975
 11
 1067.539
 21
 309.0114
  0
LINE
  8
0
 62
 170 
 10
 1067.539
 20
 309.0114
 11
 1068.52
 21
 306.0663
  0
LINE
  8
0
 62
 170 
 10
 1068.52
 20
 306.0663
 11
 1068.52
 21
 303.1212
  0
LINE
  8
0
 62
 170 
 10
 1068.52
 20
 303.1212
 11
 1067.538
 21
 300.1762
  0
LINE
  8
0
 62
 170 
 10
 1067.538
 20
 300.1762
 11
 1066.556
 21
 299.1946
  0
LINE
  8
0
 62
 170 
 10
 1066.556
 20
 299.1946
 11
 1064.593
 21
 298.2131
  0
LINE
  8
0
 62
 170 
 10
 1066.558
 20
 319.8101
 11
 1067.539
 21
 318.8284
  0
LINE
  8
0
 62
 170 
 10
 1067.539
 20
 318.8284
 11
 1068.521
 21
 319.81
  0
LINE
  8
0
 62
 170 
 10
 1068.521
 20
 319.81
 11
 1067.54
 21
 320.7917
  0
LINE
  8
0
 62
 170 
 10
 1067.54
 20
 320.7917
 11
 1066.558
 21
 319.8101
  0
LINE
  8
0
 62
 170 
 10
 1047.907
 20
 339.4455
 11
 1047.906
 21
 329.6286
  0
LINE
  8
0
 62
 170 
 10
 1047.906
 20
 329.6286
 11
 1056.742
 21
 328.6462
  0
LINE
  8
0
 62
 170 
 10
 1056.742
 20
 328.6462
 11
 1055.76
 21
 329.628
  0
LINE
  8
0
 62
 170 
 10
 1055.76
 20
 329.628
 11
 1054.779
 21
 332.5731
  0
LINE
  8
0
 62
 170 
 10
 1054.779
 20
 332.5731
 11
 1054.779
 21
 335.5182
  0
LINE
  8
0
 62
 170 
 10
 1054.779
 20
 335.5182
 11
 1055.761
 21
 338.4632
  0
LINE
  8
0
 62
 170 
 10
 1055.761
 20
 338.4632
 11
 1057.724
 21
 340.4264
  0
LINE
  8
0
 62
 170 
 10
 1057.724
 20
 340.4264
 11
 1060.67
 21
 341.4078
  0
LINE
  8
0
 62
 170 
 10
 1060.67
 20
 341.4078
 11
 1062.633
 21
 341.4077
  0
LINE
  8
0
 62
 170 
 10
 1062.633
 20
 341.4077
 11
 1065.578
 21
 340.4258
  0
LINE
  8
0
 62
 170 
 10
 1065.578
 20
 340.4258
 11
 1067.541
 21
 338.4622
  0
LINE
  8
0
 62
 170 
 10
 1067.541
 20
 338.4622
 11
 1068.523
 21
 335.517
  0
LINE
  8
0
 62
 170 
 10
 1068.523
 20
 335.517
 11
 1068.522
 21
 332.572
  0
LINE
  8
0
 62
 170 
 10
 1068.522
 20
 332.572
 11
 1067.54
 21
 329.627
  0
LINE
  8
0
 62
 170 
 10
 1067.54
 20
 329.627
 11
 1066.559
 21
 328.6454
  0
LINE
  8
0
 62
 170 
 10
 1066.559
 20
 328.6454
 11
 1064.595
 21
 327.6638
  0
LINE
  8
0
 62
 170 
 10
 1047.909
 20
 353.1892
 11
 1048.89
 21
 350.2441
  0
LINE
  8
0
 62
 170 
 10
 1048.89
 20
 350.2441
 11
 1051.835
 21
 348.2804
  0
LINE
  8
0
 62
 170 
 10
 1051.835
 20
 348.2804
 11
 1056.743
 21
 347.2983
  0
LINE
  8
0
 62
 170 
 10
 1056.743
 20
 347.2983
 11
 1059.688
 21
 347.2981
  0
LINE
  8
0
 62
 170 
 10
 1059.688
 20
 347.2981
 11
 1064.597
 21
 348.2794
  0
LINE
  8
0
 62
 170 
 10
 1064.597
 20
 348.2794
 11
 1067.542
 21
 350.2425
  0
LINE
  8
0
 62
 170 
 10
 1067.542
 20
 350.2425
 11
 1068.524
 21
 353.1875
  0
LINE
  8
0
 62
 170 
 10
 1068.524
 20
 353.1875
 11
 1068.524
 21
 355.1509
  0
LINE
  8
0
 62
 170 
 10
 1068.524
 20
 355.1509
 11
 1067.543
 21
 358.096
  0
LINE
  8
0
 62
 170 
 10
 1067.543
 20
 358.096
 11
 1064.598
 21
 360.0597
  0
LINE
  8
0
 62
 170 
 10
 1064.598
 20
 360.0597
 11
 1059.689
 21
 361.0418
  0
LINE
  8
0
 62
 170 
 10
 1059.689
 20
 361.0418
 11
 1056.744
 21
 361.042
  0
LINE
  8
0
 62
 170 
 10
 1056.744
 20
 361.042
 11
 1051.836
 21
 360.0607
  0
LINE
  8
0
 62
 170 
 10
 1051.836
 20
 360.0607
 11
 1048.891
 21
 358.0976
  0
LINE
  8
0
 62
 170 
 10
 1048.891
 20
 358.0976
 11
 1047.909
 21
 355.1526
  0
LINE
  8
0
 62
 170 
 10
 1047.909
 20
 355.1526
 11
 1047.909
 21
 353.1892
  0
LINE
  8
0
 62
 170 
 10
 1051.284
 20
 475
 11
 1051.312
 21
 425
  0
LINE
  8
0
 62
 170 
 10
 1051.312
 20
 425
 11
 1051.309
 21
 375
  0
LINE
  8
0
 62
 170 
 10
 1051.309
 20
 375
 11
 1051.308
 21
 371.9224
  0
LINE
  8
0
 62
 170 
 10
 1051.301
 20
 256
 11
 1051.305
 21
 225
  0
LINE
  8
0
 62
 170 
 10
 1051.305
 20
 225
 11
 1051.308
 21
 175
  0
LINE
  8
0
 62
 170 
 10
 1051.308
 20
 175
 11
 1051.312
 21
 125
  0
LINE
  8
0
 62
 170 
 10
 1051.312
 20
 125
 11
 1051.312
 21
 75
  0
LINE
  8
0
 62
 170 
 10
 1051.312
 20
 75
 11
 1051.325
 21
 25
  0
LINE
  8
0
 62
 170 
 10
 1034.612
 20
 261.8912
 11
 1033.631
 21
 263.8547
  0
LINE
  8
0
 62
 170 
 10
 1033.631
 20
 263.8547
 11
 1030.686
 21
 266.7999
  0
LINE
  8
0
 62
 170 
 10
 1030.686
 20
 266.7999
 11
 1051.301
 21
 266.7986
  0
LINE
  8
0
 62
 170 
 10
 1035.595
 20
 279.5616
 11
 1034.613
 21
 279.5617
  0
LINE
  8
0
 62
 170 
 10
 1034.613
 20
 279.5617
 11
 1032.65
 21
 280.5435
  0
LINE
  8
0
 62
 170 
 10
 1032.65
 20
 280.5435
 11
 1031.668
 21
 281.5253
  0
LINE
  8
0
 62
 170 
 10
 1031.668
 20
 281.5253
 11
 1030.687
 21
 283.4887
  0
LINE
  8
0
 62
 170 
 10
 1030.687
 20
 283.4887
 11
 1030.687
 21
 287.4155
  0
LINE
  8
0
 62
 170 
 10
 1030.687
 20
 287.4155
 11
 1031.669
 21
 289.3788
  0
LINE
  8
0
 62
 170 
 10
 1031.669
 20
 289.3788
 11
 1032.651
 21
 290.3604
  0
LINE
  8
0
 62
 170 
 10
 1032.651
 20
 290.3604
 11
 1034.614
 21
 291.342
  0
LINE
  8
0
 62
 170 
 10
 1034.614
 20
 291.342
 11
 1036.578
 21
 291.3419
  0
LINE
  8
0
 62
 170 
 10
 1036.578
 20
 291.3419
 11
 1038.541
 21
 290.36
  0
LINE
  8
0
 62
 170 
 10
 1038.541
 20
 290.36
 11
 1041.486
 21
 288.3965
  0
LINE
  8
0
 62
 170 
 10
 1041.486
 20
 288.3965
 11
 1051.302
 21
 278.5789
  0
LINE
  8
0
 62
 170 
 10
 1051.302
 20
 278.5789
 11
 1051.303
 21
 292.3226
  0
LINE
  8
0
 62
 170 
 10
 1030.688
 20
 300.1775
 11
 1030.689
 21
 310.9761
  0
LINE
  8
0
 62
 170 
 10
 1030.689
 20
 310.9761
 11
 1038.542
 21
 305.0854
  0
LINE
  8
0
 62
 170 
 10
 1038.542
 20
 305.0854
 11
 1038.542
 21
 308.0305
  0
LINE
  8
0
 62
 170 
 10
 1038.542
 20
 308.0305
 11
 1039.524
 21
 309.9938
  0
LINE
  8
0
 62
 170 
 10
 1039.524
 20
 309.9938
 11
 1040.506
 21
 310.9754
  0
LINE
  8
0
 62
 170 
 10
 1040.506
 20
 310.9754
 11
 1043.451
 21
 311.9569
  0
LINE
  8
0
 62
 170 
 10
 1043.451
 20
 311.9569
 11
 1045.414
 21
 311.9568
  0
LINE
  8
0
 62
 170 
 10
 1045.414
 20
 311.9568
 11
 1048.359
 21
 310.9749
  0
LINE
  8
0
 62
 170 
 10
 1048.359
 20
 310.9749
 11
 1050.322
 21
 309.0114
  0
LINE
  8
0
 62
 170 
 10
 1050.322
 20
 309.0114
 11
 1051.304
 21
 306.0663
  0
LINE
  8
0
 62
 170 
 10
 1051.304
 20
 306.0663
 11
 1051.304
 21
 303.1212
  0
LINE
  8
0
 62
 170 
 10
 1051.304
 20
 303.1212
 11
 1050.322
 21
 300.1762
  0
LINE
  8
0
 62
 170 
 10
 1050.322
 20
 300.1762
 11
 1049.34
 21
 299.1946
  0
LINE
  8
0
 62
 170 
 10
 1049.34
 20
 299.1946
 11
 1047.377
 21
 298.213
  0
LINE
  8
0
 62
 170 
 10
 1049.341
 20
 319.8101
 11
 1050.323
 21
 318.8283
  0
LINE
  8
0
 62
 170 
 10
 1050.323
 20
 318.8283
 11
 1051.305
 21
 319.81
  0
LINE
  8
0
 62
 170 
 10
 1051.305
 20
 319.81
 11
 1050.323
 21
 320.7917
  0
LINE
  8
0
 62
 170 
 10
 1050.323
 20
 320.7917
 11
 1049.341
 21
 319.8101
  0
LINE
  8
0
 62
 170 
 10
 1030.691
 20
 341.4085
 11
 1051.306
 21
 331.5903
  0
LINE
  8
0
 62
 170 
 10
 1030.69
 20
 327.6648
 11
 1030.691
 21
 341.4085
  0
LINE
  8
0
 62
 170 
 10
 1030.692
 20
 359.079
 11
 1030.691
 21
 349.2621
  0
LINE
  8
0
 62
 170 
 10
 1030.691
 20
 349.2621
 11
 1039.526
 21
 348.2798
  0
LINE
  8
0
 62
 170 
 10
 1039.526
 20
 348.2798
 11
 1038.545
 21
 349.2615
  0
LINE
  8
0
 62
 170 
 10
 1038.545
 20
 349.2615
 11
 1037.563
 21
 352.2067
  0
LINE
  8
0
 62
 170 
 10
 1037.563
 20
 352.2067
 11
 1037.563
 21
 355.1518
  0
LINE
  8
0
 62
 170 
 10
 1037.563
 20
 355.1518
 11
 1038.545
 21
 358.0968
  0
LINE
  8
0
 62
 170 
 10
 1038.545
 20
 358.0968
 11
 1040.509
 21
 360.06
  0
LINE
  8
0
 62
 170 
 10
 1040.509
 20
 360.06
 11
 1043.454
 21
 361.0415
  0
LINE
  8
0
 62
 170 
 10
 1043.454
 20
 361.0415
 11
 1045.417
 21
 361.0414
  0
LINE
  8
0
 62
 170 
 10
 1045.417
 20
 361.0414
 11
 1048.362
 21
 360.0595
  0
LINE
  8
0
 62
 170 
 10
 1048.362
 20
 360.0595
 11
 1050.326
 21
 358.096
  0
LINE
  8
0
 62
 170 
 10
 1050.326
 20
 358.096
 11
 1051.307
 21
 355.1509
  0
LINE
  8
0
 62
 170 
 10
 1051.307
 20
 355.1509
 11
 1051.307
 21
 352.2058
  0
LINE
  8
0
 62
 170 
 10
 1051.307
 20
 352.2058
 11
 1050.325
 21
 349.2608
  0
LINE
  8
0
 62
 170 
 10
 1050.325
 20
 349.2608
 11
 1049.343
 21
 348.2791
  0
LINE
  8
0
 62
 170 
 10
 1049.343
 20
 348.2791
 11
 1047.38
 21
 347.2976
  0
LINE
  8
0
 62
 170 
 10
 1034.073
 20
 475
 11
 1034.097
 21
 425
  0
LINE
  8
0
 62
 170 
 10
 1034.097
 20
 425
 11
 1034.091
 21
 375
  0
LINE
  8
0
 62
 170 
 10
 1034.091
 20
 375
 11
 1034.091
 21
 371.9224
  0
LINE
  8
0
 62
 170 
 10
 1034.085
 20
 256
 11
 1034.09
 21
 225
  0
LINE
  8
0
 62
 170 
 10
 1034.09
 20
 225
 11
 1034.095
 21
 175
  0
LINE
  8
0
 62
 170 
 10
 1034.095
 20
 175
 11
 1034.097
 21
 125
  0
LINE
  8
0
 62
 170 
 10
 1034.097
 20
 125
 11
 1034.097
 21
 75
  0
LINE
  8
0
 62
 170 
 10
 1034.097
 20
 75
 11
 1034.115
 21
 25
  0
LINE
  8
0
 62
 170 
 10
 1017.397
 20
 261.8909
 11
 1016.415
 21
 263.8543
  0
LINE
  8
0
 62
 170 
 10
 1016.415
 20
 263.8543
 11
 1013.47
 21
 266.7995
  0
LINE
  8
0
 62
 170 
 10
 1013.47
 20
 266.7995
 11
 1034.086
 21
 266.7986
  0
LINE
  8
0
 62
 170 
 10
 1018.379
 20
 279.5613
 11
 1017.398
 21
 279.5614
  0
LINE
  8
0
 62
 170 
 10
 1017.398
 20
 279.5614
 11
 1015.434
 21
 280.5432
  0
LINE
  8
0
 62
 170 
 10
 1015.434
 20
 280.5432
 11
 1014.453
 21
 281.5249
  0
LINE
  8
0
 62
 170 
 10
 1014.453
 20
 281.5249
 11
 1013.471
 21
 283.4883
  0
LINE
  8
0
 62
 170 
 10
 1013.471
 20
 283.4883
 11
 1013.471
 21
 287.4151
  0
LINE
  8
0
 62
 170 
 10
 1013.471
 20
 287.4151
 11
 1014.453
 21
 289.3784
  0
LINE
  8
0
 62
 170 
 10
 1014.453
 20
 289.3784
 11
 1015.435
 21
 290.36
  0
LINE
  8
0
 62
 170 
 10
 1015.435
 20
 290.36
 11
 1017.398
 21
 291.3417
  0
LINE
  8
0
 62
 170 
 10
 1017.398
 20
 291.3417
 11
 1019.362
 21
 291.3416
  0
LINE
  8
0
 62
 170 
 10
 1019.362
 20
 291.3416
 11
 1021.325
 21
 290.3598
  0
LINE
  8
0
 62
 170 
 10
 1021.325
 20
 290.3598
 11
 1024.27
 21
 288.3963
  0
LINE
  8
0
 62
 170 
 10
 1024.27
 20
 288.3963
 11
 1034.086
 21
 278.5789
  0
LINE
  8
0
 62
 170 
 10
 1034.086
 20
 278.5789
 11
 1034.087
 21
 292.3226
  0
LINE
  8
0
 62
 170 
 10
 1013.472
 20
 308.0306
 11
 1027.215
 21
 298.2131
  0
LINE
  8
0
 62
 170 
 10
 1027.215
 20
 298.2131
 11
 1027.216
 21
 312.9384
  0
LINE
  8
0
 62
 170 
 10
 1013.472
 20
 308.0306
 11
 1034.088
 21
 308.0297
  0
LINE
  8
0
 62
 170 
 10
 1032.125
 20
 319.8101
 11
 1033.106
 21
 318.8283
  0
LINE
  8
0
 62
 170 
 10
 1033.106
 20
 318.8283
 11
 1034.088
 21
 319.81
  0
LINE
  8
0
 62
 170 
 10
 1034.088
 20
 319.81
 11
 1033.107
 21
 320.7917
  0
LINE
  8
0
 62
 170 
 10
 1033.107
 20
 320.7917
 11
 1032.125
 21
 319.8101
  0
LINE
  8
0
 62
 170 
 10
 1013.473
 20
 333.5546
 11
 1014.455
 21
 330.6095
  0
LINE
  8
0
 62
 170 
 10
 1014.455
 20
 330.6095
 11
 1017.4
 21
 328.6459
  0
LINE
  8
0
 62
 170 
 10
 1017.4
 20
 328.6459
 11
 1022.308
 21
 327.664
  0
LINE
  8
0
 62
 170 
 10
 1022.308
 20
 327.664
 11
 1025.253
 21
 327.6639
  0
LINE
  8
0
 62
 170 
 10
 1025.253
 20
 327.6639
 11
 1030.162
 21
 328.6454
  0
LINE
  8
0
 62
 170 
 10
 1030.162
 20
 328.6454
 11
 1033.107
 21
 330.6086
  0
LINE
  8
0
 62
 170 
 10
 1033.107
 20
 330.6086
 11
 1034.089
 21
 333.5536
  0
LINE
  8
0
 62
 170 
 10
 1034.089
 20
 333.5536
 11
 1034.089
 21
 335.517
  0
LINE
  8
0
 62
 170 
 10
 1034.089
 20
 335.517
 11
 1033.107
 21
 338.4622
  0
LINE
  8
0
 62
 170 
 10
 1033.107
 20
 338.4622
 11
 1030.162
 21
 340.4257
  0
LINE
  8
0
 62
 170 
 10
 1030.162
 20
 340.4257
 11
 1025.254
 21
 341.4076
  0
LINE
  8
0
 62
 170 
 10
 1025.254
 20
 341.4076
 11
 1022.309
 21
 341.4077
  0
LINE
  8
0
 62
 170 
 10
 1022.309
 20
 341.4077
 11
 1017.4
 21
 340.4262
  0
LINE
  8
0
 62
 170 
 10
 1017.4
 20
 340.4262
 11
 1014.455
 21
 338.463
  0
LINE
  8
0
 62
 170 
 10
 1014.455
 20
 338.463
 11
 1013.473
 21
 335.518
  0
LINE
  8
0
 62
 170 
 10
 1013.473
 20
 335.518
 11
 1013.473
 21
 333.5546
  0
LINE
  8
0
 62
 170 
 10
 1013.474
 20
 353.1884
 11
 1014.456
 21
 350.2433
  0
LINE
  8
0
 62
 170 
 10
 1014.456
 20
 350.2433
 11
 1017.401
 21
 348.2798
  0
LINE
  8
0
 62
 170 
 10
 1017.401
 20
 348.2798
 11
 1022.309
 21
 347.2979
  0
LINE
  8
0
 62
 170 
 10
 1022.309
 20
 347.2979
 11
 1025.254
 21
 347.2977
  0
LINE
  8
0
 62
 170 
 10
 1025.254
 20
 347.2977
 11
 1030.163
 21
 348.2792
  0
LINE
  8
0
 62
 170 
 10
 1030.163
 20
 348.2792
 11
 1033.108
 21
 350.2425
  0
LINE
  8
0
 62
 170 
 10
 1033.108
 20
 350.2425
 11
 1034.09
 21
 353.1875
  0
LINE
  8
0
 62
 170 
 10
 1034.09
 20
 353.1875
 11
 1034.09
 21
 355.1509
  0
LINE
  8
0
 62
 170 
 10
 1034.09
 20
 355.1509
 11
 1033.108
 21
 358.096
  0
LINE
  8
0
 62
 170 
 10
 1033.108
 20
 358.096
 11
 1030.163
 21
 360.0595
  0
LINE
  8
0
 62
 170 
 10
 1030.163
 20
 360.0595
 11
 1025.255
 21
 361.0414
  0
LINE
  8
0
 62
 170 
 10
 1025.255
 20
 361.0414
 11
 1022.31
 21
 361.0416
  0
LINE
  8
0
 62
 170 
 10
 1022.31
 20
 361.0416
 11
 1017.401
 21
 360.0601
  0
LINE
  8
0
 62
 170 
 10
 1017.401
 20
 360.0601
 11
 1014.456
 21
 358.0968
  0
LINE
  8
0
 62
 170 
 10
 1014.456
 20
 358.0968
 11
 1013.474
 21
 355.1518
  0
LINE
  8
0
 62
 170 
 10
 1013.474
 20
 355.1518
 11
 1013.474
 21
 353.1884
  0
LINE
  8
0
 62
 170 
 10
 1016.029
 20
 475
 11
 1016.048
 21
 425
  0
LINE
  8
0
 62
 170 
 10
 1016.048
 20
 425
 11
 1016.04
 21
 375
  0
LINE
  8
0
 62
 170 
 10
 1016.04
 20
 375
 11
 1016.04
 21
 371.9224
  0
LINE
  8
0
 62
 170 
 10
 1016.037
 20
 256
 11
 1016.042
 21
 225
  0
LINE
  8
0
 62
 170 
 10
 1016.042
 20
 225
 11
 1016.048
 21
 175
  0
LINE
  8
0
 62
 170 
 10
 1016.048
 20
 175
 11
 1016.048
 21
 125
  0
LINE
  8
0
 62
 170 
 10
 1016.048
 20
 125
 11
 1016.048
 21
 75
  0
LINE
  8
0
 62
 170 
 10
 1016.048
 20
 75
 11
 1016.072
 21
 25
  0
LINE
  8
0
 62
 170 
 10
 999.3483
 20
 261.8906
 11
 998.3666
 21
 263.854
  0
LINE
  8
0
 62
 170 
 10
 998.3666
 20
 263.854
 11
 995.4216
 21
 266.7992
  0
LINE
  8
0
 62
 170 
 10
 995.4216
 20
 266.7992
 11
 1016.037
 21
 266.7986
  0
LINE
  8
0
 62
 170 
 10
 1000.33
 20
 279.561
 11
 999.3487
 21
 279.561
  0
LINE
  8
0
 62
 170 
 10
 999.3487
 20
 279.561
 11
 997.3854
 21
 280.5428
  0
LINE
  8
0
 62
 170 
 10
 997.3854
 20
 280.5428
 11
 996.4037
 21
 281.5245
  0
LINE
  8
0
 62
 170 
 10
 996.4037
 20
 281.5245
 11
 995.4221
 21
 283.4879
  0
LINE
  8
0
 62
 170 
 10
 995.4221
 20
 283.4879
 11
 995.4222
 21
 287.4147
  0
LINE
  8
0
 62
 170 
 10
 995.4222
 20
 287.4147
 11
 996.4039
 21
 289.378
  0
LINE
  8
0
 62
 170 
 10
 996.4039
 20
 289.378
 11
 997.3856
 21
 290.3597
  0
LINE
  8
0
 62
 170 
 10
 997.3856
 20
 290.3597
 11
 999.349
 21
 291.3413
  0
LINE
  8
0
 62
 170 
 10
 999.349
 20
 291.3413
 11
 1001.312
 21
 291.3413
  0
LINE
  8
0
 62
 170 
 10
 1001.312
 20
 291.3413
 11
 1003.276
 21
 290.3596
  0
LINE
  8
0
 62
 170 
 10
 1003.276
 20
 290.3596
 11
 1006.221
 21
 288.3961
  0
LINE
  8
0
 62
 170 
 10
 1006.221
 20
 288.3961
 11
 1016.037
 21
 278.5789
  0
LINE
  8
0
 62
 170 
 10
 1016.037
 20
 278.5789
 11
 1016.038
 21
 292.3226
  0
LINE
  8
0
 62
 170 
 10
 995.4227
 20
 308.0302
 11
 1009.166
 21
 298.2129
  0
LINE
  8
0
 62
 170 
 10
 1009.166
 20
 298.2129
 11
 1009.167
 21
 312.9383
  0
LINE
  8
0
 62
 170 
 10
 995.4227
 20
 308.0302
 11
 1016.038
 21
 308.0297
  0
LINE
  8
0
 62
 170 
 10
 1014.075
 20
 319.81
 11
 1015.057
 21
 318.8283
  0
LINE
  8
0
 62
 170 
 10
 1015.057
 20
 318.8283
 11
 1016.039
 21
 319.81
  0
LINE
  8
0
 62
 170 
 10
 1016.039
 20
 319.81
 11
 1015.057
 21
 320.7917
  0
LINE
  8
0
 62
 170 
 10
 1015.057
 20
 320.7917
 11
 1014.075
 21
 319.81
  0
LINE
  8
0
 62
 170 
 10
 1000.332
 20
 328.6456
 11
 999.35
 21
 328.6456
  0
LINE
  8
0
 62
 170 
 10
 999.35
 20
 328.6456
 11
 997.3867
 21
 329.6274
  0
LINE
  8
0
 62
 170 
 10
 997.3867
 20
 329.6274
 11
 996.405
 21
 330.6091
  0
LINE
  8
0
 62
 170 
 10
 996.405
 20
 330.6091
 11
 995.4233
 21
 332.5725
  0
LINE
  8
0
 62
 170 
 10
 995.4233
 20
 332.5725
 11
 995.4235
 21
 336.4993
  0
LINE
  8
0
 62
 170 
 10
 995.4235
 20
 336.4993
 11
 996.4052
 21
 338.4626
  0
LINE
  8
0
 62
 170 
 10
 996.4052
 20
 338.4626
 11
 997.3869
 21
 339.4443
  0
LINE
  8
0
 62
 170 
 10
 997.3869
 20
 339.4443
 11
 999.3503
 21
 340.4259
  0
LINE
  8
0
 62
 170 
 10
 999.3503
 20
 340.4259
 11
 1001.314
 21
 340.4259
  0
LINE
  8
0
 62
 170 
 10
 1001.314
 20
 340.4259
 11
 1003.277
 21
 339.4442
  0
LINE
  8
0
 62
 170 
 10
 1003.277
 20
 339.4442
 11
 1006.222
 21
 337.4807
  0
LINE
  8
0
 62
 170 
 10
 1006.222
 20
 337.4807
 11
 1016.039
 21
 327.6635
  0
LINE
  8
0
 62
 170 
 10
 1016.039
 20
 327.6635
 11
 1016.039
 21
 341.4072
  0
LINE
  8
0
 62
 170 
 10
 995.424
 20
 359.0782
 11
 995.4238
 21
 349.2613
  0
LINE
  8
0
 62
 170 
 10
 995.4238
 20
 349.2613
 11
 1004.259
 21
 348.2793
  0
LINE
  8
0
 62
 170 
 10
 1004.259
 20
 348.2793
 11
 1003.277
 21
 349.261
  0
LINE
  8
0
 62
 170 
 10
 1003.277
 20
 349.261
 11
 1002.296
 21
 352.2061
  0
LINE
  8
0
 62
 170 
 10
 1002.296
 20
 352.2061
 11
 1002.296
 21
 355.1512
  0
LINE
  8
0
 62
 170 
 10
 1002.296
 20
 355.1512
 11
 1003.278
 21
 358.0963
  0
LINE
  8
0
 62
 170 
 10
 1003.278
 20
 358.0963
 11
 1005.241
 21
 360.0596
  0
LINE
  8
0
 62
 170 
 10
 1005.241
 20
 360.0596
 11
 1008.186
 21
 361.0412
  0
LINE
  8
0
 62
 170 
 10
 1008.186
 20
 361.0412
 11
 1010.149
 21
 361.0412
  0
LINE
  8
0
 62
 170 
 10
 1010.149
 20
 361.0412
 11
 1013.094
 21
 360.0594
  0
LINE
  8
0
 62
 170 
 10
 1013.094
 20
 360.0594
 11
 1015.058
 21
 358.096
  0
LINE
  8
0
 62
 170 
 10
 1015.058
 20
 358.096
 11
 1016.039
 21
 355.1509
  0
LINE
  8
0
 62
 170 
 10
 1016.039
 20
 355.1509
 11
 1016.039
 21
 352.2058
  0
LINE
  8
0
 62
 170 
 10
 1016.039
 20
 352.2058
 11
 1015.058
 21
 349.2607
  0
LINE
  8
0
 62
 170 
 10
 1015.058
 20
 349.2607
 11
 1014.076
 21
 348.2791
  0
LINE
  8
0
 62
 170 
 10
 1014.076
 20
 348.2791
 11
 1012.112
 21
 347.2974
  0
LINE
  8
0
 62
 170 
 10
 997.0554
 20
 475
 11
 997.0656
 21
 425
  0
LINE
  8
0
 62
 170 
 10
 997.0656
 20
 425
 11
 997.0577
 21
 375
  0
LINE
  8
0
 62
 170 
 10
 997.0577
 20
 375
 11
 997.0572
 21
 371.9224
  0
LINE
  8
0
 62
 170 
 10
 997.0573
 20
 256
 11
 997.0623
 21
 225
  0
LINE
  8
0
 62
 170 
 10
 997.0623
 20
 225
 11
 997.0656
 21
 175
  0
LINE
  8
0
 62
 170 
 10
 997.0656
 20
 175
 11
 997.0656
 21
 125
  0
LINE
  8
0
 62
 170 
 10
 997.0656
 20
 125
 11
 997.0656
 21
 75
  0
LINE
  8
0
 62
 170 
 10
 997.0656
 20
 75
 11
 997.0923
 21
 25
  0
LINE
  8
0
 62
 170 
 10
 980.3685
 20
 261.8901
 11
 979.3868
 21
 263.8535
  0
LINE
  8
0
 62
 170 
 10
 979.3868
 20
 263.8535
 11
 976.4417
 21
 266.7986
  0
LINE
  8
0
 62
 170 
 10
 976.4417
 20
 266.7986
 11
 997.0573
 21
 266.7986
  0
LINE
  8
0
 62
 170 
 10
 981.3502
 20
 279.5606
 11
 980.3685
 21
 279.5606
  0
LINE
  8
0
 62
 170 
 10
 980.3685
 20
 279.5606
 11
 978.4051
 21
 280.5423
  0
LINE
  8
0
 62
 170 
 10
 978.4051
 20
 280.5423
 11
 977.4234
 21
 281.524
  0
LINE
  8
0
 62
 170 
 10
 977.4234
 20
 281.524
 11
 976.4417
 21
 283.4874
  0
LINE
  8
0
 62
 170 
 10
 976.4417
 20
 283.4874
 11
 976.4417
 21
 287.4141
  0
LINE
  8
0
 62
 170 
 10
 976.4417
 20
 287.4141
 11
 977.4234
 21
 289.3775
  0
LINE
  8
0
 62
 170 
 10
 977.4234
 20
 289.3775
 11
 978.4051
 21
 290.3592
  0
LINE
  8
0
 62
 170 
 10
 978.4051
 20
 290.3592
 11
 980.3685
 21
 291.3409
  0
LINE
  8
0
 62
 170 
 10
 980.3685
 20
 291.3409
 11
 982.3318
 21
 291.3409
  0
LINE
  8
0
 62
 170 
 10
 982.3318
 20
 291.3409
 11
 984.2952
 21
 290.3592
  0
LINE
  8
0
 62
 170 
 10
 984.2952
 20
 290.3592
 11
 987.2403
 21
 288.3958
  0
LINE
  8
0
 62
 170 
 10
 987.2403
 20
 288.3958
 11
 997.0573
 21
 278.5789
  0
LINE
  8
0
 62
 170 
 10
 997.0573
 20
 278.5789
 11
 997.0573
 21
 292.3226
  0
LINE
  8
0
 62
 170 
 10
 976.4417
 20
 308.0297
 11
 990.1854
 21
 298.2127
  0
LINE
  8
0
 62
 170 
 10
 990.1854
 20
 298.2127
 11
 990.1854
 21
 312.9381
  0
LINE
  8
0
 62
 170 
 10
 976.4417
 20
 308.0297
 11
 997.0573
 21
 308.0297
  0
LINE
  8
0
 62
 170 
 10
 995.0938
 20
 319.81
 11
 996.0755
 21
 318.8283
  0
LINE
  8
0
 62
 170 
 10
 996.0755
 20
 318.8283
 11
 997.0572
 21
 319.81
  0
LINE
  8
0
 62
 170 
 10
 997.0572
 20
 319.81
 11
 996.0755
 21
 320.7917
  0
LINE
  8
0
 62
 170 
 10
 996.0755
 20
 320.7917
 11
 995.0938
 21
 319.81
  0
LINE
  8
0
 62
 170 
 10
 976.4417
 20
 339.4438
 11
 976.4417
 21
 329.6269
  0
LINE
  8
0
 62
 170 
 10
 976.4417
 20
 329.6269
 11
 985.2769
 21
 328.6452
  0
LINE
  8
0
 62
 170 
 10
 985.2769
 20
 328.6452
 11
 984.2952
 21
 329.6269
  0
LINE
  8
0
 62
 170 
 10
 984.2952
 20
 329.6269
 11
 983.3135
 21
 332.572
  0
LINE
  8
0
 62
 170 
 10
 983.3135
 20
 332.572
 11
 983.3135
 21
 335.517
  0
LINE
  8
0
 62
 170 
 10
 983.3135
 20
 335.517
 11
 984.2952
 21
 338.4621
  0
LINE
  8
0
 62
 170 
 10
 984.2952
 20
 338.4621
 11
 986.2586
 21
 340.4255
  0
LINE
  8
0
 62
 170 
 10
 986.2586
 20
 340.4255
 11
 989.2037
 21
 341.4072
  0
LINE
  8
0
 62
 170 
 10
 989.2037
 20
 341.4072
 11
 991.1671
 21
 341.4072
  0
LINE
  8
0
 62
 170 
 10
 991.1671
 20
 341.4072
 11
 994.1121
 21
 340.4255
  0
LINE
  8
0
 62
 170 
 10
 994.1121
 20
 340.4255
 11
 996.0755
 21
 338.4621
  0
LINE
  8
0
 62
 170 
 10
 996.0755
 20
 338.4621
 11
 997.0572
 21
 335.517
  0
LINE
  8
0
 62
 170 
 10
 997.0572
 20
 335.517
 11
 997.0572
 21
 332.572
  0
LINE
  8
0
 62
 170 
 10
 997.0572
 20
 332.572
 11
 996.0755
 21
 329.6269
  0
LINE
  8
0
 62
 170 
 10
 996.0755
 20
 329.6269
 11
 995.0938
 21
 328.6452
  0
LINE
  8
0
 62
 170 
 10
 995.0938
 20
 328.6452
 11
 993.1304
 21
 327.6635
  0
LINE
  8
0
 62
 170 
 10
 976.4417
 20
 353.1875
 11
 977.4233
 21
 350.2424
  0
LINE
  8
0
 62
 170 
 10
 977.4233
 20
 350.2424
 11
 980.3685
 21
 348.279
  0
LINE
  8
0
 62
 170 
 10
 980.3685
 20
 348.279
 11
 985.2769
 21
 347.2973
  0
LINE
  8
0
 62
 170 
 10
 985.2769
 20
 347.2973
 11
 988.222
 21
 347.2973
  0
LINE
  8
0
 62
 170 
 10
 988.222
 20
 347.2973
 11
 993.1304
 21
 348.279
  0
LINE
  8
0
 62
 170 
 10
 993.1304
 20
 348.279
 11
 996.0755
 21
 350.2424
  0
LINE
  8
0
 62
 170 
 10
 996.0755
 20
 350.2424
 11
 997.0572
 21
 353.1875
  0
LINE
  8
0
 62
 170 
 10
 997.0572
 20
 353.1875
 11
 997.0572
 21
 355.1509
  0
LINE
  8
0
 62
 170 
 10
 997.0572
 20
 355.1509
 11
 996.0755
 21
 358.0959
  0
LINE
  8
0
 62
 170 
 10
 996.0755
 20
 358.0959
 11
 993.1304
 21
 360.0593
  0
LINE
  8
0
 62
 170 
 10
 993.1304
 20
 360.0593
 11
 988.222
 21
 361.041
  0
LINE
  8
0
 62
 170 
 10
 988.222
 20
 361.041
 11
 985.2769
 21
 361.041
  0
LINE
  8
0
 62
 170 
 10
 985.2769
 20
 361.041
 11
 980.3684
 21
 360.0593
  0
LINE
  8
0
 62
 170 
 10
 980.3684
 20
 360.0593
 11
 977.4233
 21
 358.0959
  0
LINE
  8
0
 62
 170 
 10
 977.4233
 20
 358.0959
 11
 976.4417
 21
 355.1509
  0
LINE
  8
0
 62
 170 
 10
 976.4417
 20
 355.1509
 11
 976.4417
 21
 353.1875
  0
LINE
  8
0
 62
 170 
 10
 978.0816
 20
 475
 11
 978.083
 21
 425
  0
LINE
  8
0
 62
 170 
 10
 978.083
 20
 425
 11
 978.075
 21
 375
  0
LINE
  8
0
 62
 170 
 10
 978.075
 20
 375
 11
 978.0745
 21
 371.9224
  0
LINE
  8
0
 62
 170 
 10
 978.0776
 20
 256
 11
 978.0826
 21
 225
  0
LINE
  8
0
 62
 170 
 10
 978.0826
 20
 225
 11
 978.083
 21
 175
  0
LINE
  8
0
 62
 170 
 10
 978.083
 20
 175
 11
 978.083
 21
 125
  0
LINE
  8
0
 62
 170 
 10
 978.083
 20
 125
 11
 978.083
 21
 75
  0
LINE
  8
0
 62
 170 
 10
 978.083
 20
 75
 11
 978.1127
 21
 25
  0
LINE
  8
0
 62
 170 
 10
 961.3887
 20
 261.8897
 11
 960.4069
 21
 263.8531
  0
LINE
  8
0
 62
 170 
 10
 960.4069
 20
 263.8531
 11
 957.4617
 21
 266.7981
  0
LINE
  8
0
 62
 170 
 10
 957.4617
 20
 266.7981
 11
 978.0773
 21
 266.7986
  0
LINE
  8
0
 62
 170 
 10
 962.3699
 20
 279.5602
 11
 961.3882
 21
 279.5602
  0
LINE
  8
0
 62
 170 
 10
 961.3882
 20
 279.5602
 11
 959.4247
 21
 280.5418
  0
LINE
  8
0
 62
 170 
 10
 959.4247
 20
 280.5418
 11
 958.4431
 21
 281.5235
  0
LINE
  8
0
 62
 170 
 10
 958.4431
 20
 281.5235
 11
 957.4613
 21
 283.4868
  0
LINE
  8
0
 62
 170 
 10
 957.4613
 20
 283.4868
 11
 957.4612
 21
 287.4136
  0
LINE
  8
0
 62
 170 
 10
 957.4612
 20
 287.4136
 11
 958.4429
 21
 289.377
  0
LINE
  8
0
 62
 170 
 10
 958.4429
 20
 289.377
 11
 959.4245
 21
 290.3587
  0
LINE
  8
0
 62
 170 
 10
 959.4245
 20
 290.3587
 11
 961.3879
 21
 291.3405
  0
LINE
  8
0
 62
 170 
 10
 961.3879
 20
 291.3405
 11
 963.3513
 21
 291.3405
  0
LINE
  8
0
 62
 170 
 10
 963.3513
 20
 291.3405
 11
 965.3146
 21
 290.3589
  0
LINE
  8
0
 62
 170 
 10
 965.3146
 20
 290.3589
 11
 968.2598
 21
 288.3956
  0
LINE
  8
0
 62
 170 
 10
 968.2598
 20
 288.3956
 11
 978.077
 21
 278.5789
  0
LINE
  8
0
 62
 170 
 10
 978.077
 20
 278.5789
 11
 978.0766
 21
 292.3226
  0
LINE
  8
0
 62
 170 
 10
 957.4606
 20
 308.0291
 11
 971.2046
 21
 298.2126
  0
LINE
  8
0
 62
 170 
 10
 971.2046
 20
 298.2126
 11
 971.2042
 21
 312.9379
  0
LINE
  8
0
 62
 170 
 10
 957.4606
 20
 308.0291
 11
 978.0762
 21
 308.0297
  0
LINE
  8
0
 62
 170 
 10
 976.1125
 20
 319.8099
 11
 977.0942
 21
 318.8282
  0
LINE
  8
0
 62
 170 
 10
 977.0942
 20
 318.8282
 11
 978.0759
 21
 319.81
  0
LINE
  8
0
 62
 170 
 10
 978.0759
 20
 319.81
 11
 977.0941
 21
 320.7916
  0
LINE
  8
0
 62
 170 
 10
 977.0941
 20
 320.7916
 11
 976.1125
 21
 319.8099
  0
LINE
  8
0
 62
 170 
 10
 957.4598
 20
 341.4066
 11
 978.0756
 21
 331.5903
  0
LINE
  8
0
 62
 170 
 10
 957.4601
 20
 327.6629
 11
 957.4598
 21
 341.4066
  0
LINE
  8
0
 62
 170 
 10
 957.4593
 20
 359.0771
 11
 957.4595
 21
 349.2602
  0
LINE
  8
0
 62
 170 
 10
 957.4595
 20
 349.2602
 11
 966.2948
 21
 348.2787
  0
LINE
  8
0
 62
 170 
 10
 966.2948
 20
 348.2787
 11
 965.313
 21
 349.2604
  0
LINE
  8
0
 62
 170 
 10
 965.313
 20
 349.2604
 11
 964.3313
 21
 352.2054
  0
LINE
  8
0
 62
 170 
 10
 964.3313
 20
 352.2054
 11
 964.3312
 21
 355.1505
  0
LINE
  8
0
 62
 170 
 10
 964.3312
 20
 355.1505
 11
 965.3129
 21
 358.0956
  0
LINE
  8
0
 62
 170 
 10
 965.3129
 20
 358.0956
 11
 967.2762
 21
 360.0591
  0
LINE
  8
0
 62
 170 
 10
 967.2762
 20
 360.0591
 11
 970.2212
 21
 361.0408
  0
LINE
  8
0
 62
 170 
 10
 970.2212
 20
 361.0408
 11
 972.1846
 21
 361.0409
  0
LINE
  8
0
 62
 170 
 10
 972.1846
 20
 361.0409
 11
 975.1297
 21
 360.0593
  0
LINE
  8
0
 62
 170 
 10
 975.1297
 20
 360.0593
 11
 977.0931
 21
 358.0959
  0
LINE
  8
0
 62
 170 
 10
 977.0931
 20
 358.0959
 11
 978.0749
 21
 355.1509
  0
LINE
  8
0
 62
 170 
 10
 978.0749
 20
 355.1509
 11
 978.075
 21
 352.2058
  0
LINE
  8
0
 62
 170 
 10
 978.075
 20
 352.2058
 11
 977.0934
 21
 349.2607
  0
LINE
  8
0
 62
 170 
 10
 977.0934
 20
 349.2607
 11
 976.1117
 21
 348.279
  0
LINE
  8
0
 62
 170 
 10
 976.1117
 20
 348.279
 11
 974.1484
 21
 347.2972
  0
LINE
  8
0
 62
 170 
 10
 957.556
 20
 475
 11
 957.5445
 21
 425
  0
LINE
  8
0
 62
 170 
 10
 957.5445
 20
 425
 11
 957.5327
 21
 375
  0
LINE
  8
0
 62
 170 
 10
 957.5327
 20
 375
 11
 957.5325
 21
 371.9224
  0
LINE
  8
0
 62
 170 
 10
 957.5409
 20
 256
 11
 957.5445
 21
 225
  0
LINE
  8
0
 62
 170 
 10
 957.5445
 20
 225
 11
 957.5414
 21
 175
  0
LINE
  8
0
 62
 170 
 10
 957.5414
 20
 175
 11
 957.5356
 21
 125
  0
LINE
  8
0
 62
 170 
 10
 957.5356
 20
 125
 11
 957.5327
 21
 75
  0
LINE
  8
0
 62
 170 
 10
 957.5327
 20
 75
 11
 957.566
 21
 25
  0
LINE
  8
0
 62
 170 
 10
 940.8517
 20
 261.8889
 11
 939.8699
 21
 263.8523
  0
LINE
  8
0
 62
 170 
 10
 939.8699
 20
 263.8523
 11
 936.9246
 21
 266.7971
  0
LINE
  8
0
 62
 170 
 10
 936.9246
 20
 266.7971
 11
 957.5401
 21
 266.7986
  0
LINE
  8
0
 62
 170 
 10
 941.8322
 20
 279.5595
 11
 940.8505
 21
 279.5594
  0
LINE
  8
0
 62
 170 
 10
 940.8505
 20
 279.5594
 11
 938.887
 21
 280.541
  0
LINE
  8
0
 62
 170 
 10
 938.887
 20
 280.541
 11
 937.9052
 21
 281.5226
  0
LINE
  8
0
 62
 170 
 10
 937.9052
 20
 281.5226
 11
 936.9234
 21
 283.4859
  0
LINE
  8
0
 62
 170 
 10
 936.9234
 20
 283.4859
 11
 936.9231
 21
 287.4127
  0
LINE
  8
0
 62
 170 
 10
 936.9231
 20
 287.4127
 11
 937.9047
 21
 289.3761
  0
LINE
  8
0
 62
 170 
 10
 937.9047
 20
 289.3761
 11
 938.8863
 21
 290.3579
  0
LINE
  8
0
 62
 170 
 10
 938.8863
 20
 290.3579
 11
 940.8496
 21
 291.3397
  0
LINE
  8
0
 62
 170 
 10
 940.8496
 20
 291.3397
 11
 942.813
 21
 291.3398
  0
LINE
  8
0
 62
 170 
 10
 942.813
 20
 291.3398
 11
 944.7764
 21
 290.3583
  0
LINE
  8
0
 62
 170 
 10
 944.7764
 20
 290.3583
 11
 947.7216
 21
 288.3951
  0
LINE
  8
0
 62
 170 
 10
 947.7216
 20
 288.3951
 11
 957.5392
 21
 278.5789
  0
LINE
  8
0
 62
 170 
 10
 957.5392
 20
 278.5789
 11
 957.5383
 21
 292.3226
  0
LINE
  8
0
 62
 170 
 10
 936.9214
 20
 309.9915
 11
 936.9222
 21
 300.1747
  0
LINE
  8
0
 62
 170 
 10
 936.9222
 20
 300.1747
 11
 945.7574
 21
 299.1936
  0
LINE
  8
0
 62
 170 
 10
 945.7574
 20
 299.1936
 11
 944.7757
 21
 300.1752
  0
LINE
  8
0
 62
 170 
 10
 944.7757
 20
 300.1752
 11
 943.7938
 21
 303.1202
  0
LINE
  8
0
 62
 170 
 10
 943.7938
 20
 303.1202
 11
 943.7936
 21
 306.0653
  0
LINE
  8
0
 62
 170 
 10
 943.7936
 20
 306.0653
 11
 944.7751
 21
 309.0104
  0
LINE
  8
0
 62
 170 
 10
 944.7751
 20
 309.0104
 11
 946.7383
 21
 310.974
  0
LINE
  8
0
 62
 170 
 10
 946.7383
 20
 310.974
 11
 949.6833
 21
 311.9559
  0
LINE
  8
0
 62
 170 
 10
 949.6833
 20
 311.9559
 11
 951.6467
 21
 311.956
  0
LINE
  8
0
 62
 170 
 10
 951.6467
 20
 311.956
 11
 954.5919
 21
 310.9745
  0
LINE
  8
0
 62
 170 
 10
 954.5919
 20
 310.9745
 11
 956.5554
 21
 309.0113
  0
LINE
  8
0
 62
 170 
 10
 956.5554
 20
 309.0113
 11
 957.5373
 21
 306.0663
  0
LINE
  8
0
 62
 170 
 10
 957.5373
 20
 306.0663
 11
 957.5375
 21
 303.1212
  0
LINE
  8
0
 62
 170 
 10
 957.5375
 20
 303.1212
 11
 956.556
 21
 300.1761
  0
LINE
  8
0
 62
 170 
 10
 956.556
 20
 300.1761
 11
 955.5744
 21
 299.1943
  0
LINE
  8
0
 62
 170 
 10
 955.5744
 20
 299.1943
 11
 953.6111
 21
 298.2125
  0
LINE
  8
0
 62
 170 
 10
 955.5729
 20
 319.8098
 11
 956.5547
 21
 318.8282
  0
LINE
  8
0
 62
 170 
 10
 956.5547
 20
 318.8282
 11
 957.5363
 21
 319.81
  0
LINE
  8
0
 62
 170 
 10
 957.5363
 20
 319.81
 11
 956.5545
 21
 320.7916
  0
LINE
  8
0
 62
 170 
 10
 956.5545
 20
 320.7916
 11
 955.5729
 21
 319.8098
  0
LINE
  8
0
 62
 170 
 10
 936.9198
 20
 333.5522
 11
 937.9017
 21
 330.6071
  0
LINE
  8
0
 62
 170 
 10
 937.9017
 20
 330.6071
 11
 940.8469
 21
 328.644
  0
LINE
  8
0
 62
 170 
 10
 940.8469
 20
 328.644
 11
 945.7554
 21
 327.6627
  0
LINE
  8
0
 62
 170 
 10
 945.7554
 20
 327.6627
 11
 948.7005
 21
 327.6629
  0
LINE
  8
0
 62
 170 
 10
 948.7005
 20
 327.6629
 11
 953.6089
 21
 328.6449
  0
LINE
  8
0
 62
 170 
 10
 953.6089
 20
 328.6449
 11
 956.5538
 21
 330.6085
  0
LINE
  8
0
 62
 170 
 10
 956.5538
 20
 330.6085
 11
 957.5353
 21
 333.5536
  0
LINE
  8
0
 62
 170 
 10
 957.5353
 20
 333.5536
 11
 957.5352
 21
 335.517
  0
LINE
  8
0
 62
 170 
 10
 957.5352
 20
 335.517
 11
 956.5532
 21
 338.462
  0
LINE
  8
0
 62
 170 
 10
 956.5532
 20
 338.462
 11
 953.608
 21
 340.4252
  0
LINE
  8
0
 62
 170 
 10
 953.608
 20
 340.4252
 11
 948.6995
 21
 341.4066
  0
LINE
  8
0
 62
 170 
 10
 948.6995
 20
 341.4066
 11
 945.7545
 21
 341.4063
  0
LINE
  8
0
 62
 170 
 10
 945.7545
 20
 341.4063
 11
 940.8461
 21
 340.4243
  0
LINE
  8
0
 62
 170 
 10
 940.8461
 20
 340.4243
 11
 937.9011
 21
 338.4607
  0
LINE
  8
0
 62
 170 
 10
 937.9011
 20
 338.4607
 11
 936.9196
 21
 335.5156
  0
LINE
  8
0
 62
 170 
 10
 936.9196
 20
 335.5156
 11
 936.9198
 21
 333.5522
  0
LINE
  8
0
 62
 170 
 10
 936.9183
 20
 353.186
 11
 937.9003
 21
 350.241
  0
LINE
  8
0
 62
 170 
 10
 937.9003
 20
 350.241
 11
 940.8455
 21
 348.2778
  0
LINE
  8
0
 62
 170 
 10
 940.8455
 20
 348.2778
 11
 945.754
 21
 347.2965
  0
LINE
  8
0
 62
 170 
 10
 945.754
 20
 347.2965
 11
 948.6991
 21
 347.2967
  0
LINE
  8
0
 62
 170 
 10
 948.6991
 20
 347.2967
 11
 953.6075
 21
 348.2787
  0
LINE
  8
0
 62
 170 
 10
 953.6075
 20
 348.2787
 11
 956.5524
 21
 350.2423
  0
LINE
  8
0
 62
 170 
 10
 956.5524
 20
 350.2423
 11
 957.5339
 21
 353.1875
  0
LINE
  8
0
 62
 170 
 10
 957.5339
 20
 353.1875
 11
 957.5338
 21
 355.1509
  0
LINE
  8
0
 62
 170 
 10
 957.5338
 20
 355.1509
 11
 956.5518
 21
 358.0959
  0
LINE
  8
0
 62
 170 
 10
 956.5518
 20
 358.0959
 11
 953.6066
 21
 360.0591
  0
LINE
  8
0
 62
 170 
 10
 953.6066
 20
 360.0591
 11
 948.6981
 21
 361.0404
  0
LINE
  8
0
 62
 170 
 10
 948.6981
 20
 361.0404
 11
 945.753
 21
 361.0402
  0
LINE
  8
0
 62
 170 
 10
 945.753
 20
 361.0402
 11
 940.8446
 21
 360.0581
  0
LINE
  8
0
 62
 170 
 10
 940.8446
 20
 360.0581
 11
 937.8997
 21
 358.0945
  0
LINE
  8
0
 62
 170 
 10
 937.8997
 20
 358.0945
 11
 936.9182
 21
 355.1494
  0
LINE
  8
0
 62
 170 
 10
 936.9182
 20
 355.1494
 11
 936.9183
 21
 353.186
  0
LINE
  8
0
 62
 170 
 10
 936.7296
 20
 475
 11
 936.7042
 21
 425
  0
LINE
  8
0
 62
 170 
 10
 936.7042
 20
 425
 11
 936.689
 21
 375
  0
LINE
  8
0
 62
 170 
 10
 936.689
 20
 375
 11
 936.6892
 21
 371.9224
  0
LINE
  8
0
 62
 170 
 10
 936.7029
 20
 256
 11
 936.7042
 21
 225
  0
LINE
  8
0
 62
 170 
 10
 936.7042
 20
 225
 11
 936.6974
 21
 175
  0
LINE
  8
0
 62
 170 
 10
 936.6974
 20
 175
 11
 936.6847
 21
 125
  0
LINE
  8
0
 62
 170 
 10
 936.6847
 20
 125
 11
 936.6784
 21
 75
  0
LINE
  8
0
 62
 170 
 10
 936.6784
 20
 75
 11
 936.712
 21
 25
  0
LINE
  8
0
 62
 170 
 10
 920.0135
 20
 261.8882
 11
 919.0316
 21
 263.8514
  0
LINE
  8
0
 62
 170 
 10
 919.0316
 20
 263.8514
 11
 916.0861
 21
 266.7962
  0
LINE
  8
0
 62
 170 
 10
 916.0861
 20
 266.7962
 11
 936.7017
 21
 266.7986
  0
LINE
  8
0
 62
 170 
 10
 920.9931
 20
 279.5587
 11
 920.0114
 21
 279.5586
  0
LINE
  8
0
 62
 170 
 10
 920.0114
 20
 279.5586
 11
 918.0479
 21
 280.5401
  0
LINE
  8
0
 62
 170 
 10
 918.0479
 20
 280.5401
 11
 917.0661
 21
 281.5217
  0
LINE
  8
0
 62
 170 
 10
 917.0661
 20
 281.5217
 11
 916.0842
 21
 283.4849
  0
LINE
  8
0
 62
 170 
 10
 916.0842
 20
 283.4849
 11
 916.0837
 21
 287.4117
  0
LINE
  8
0
 62
 170 
 10
 916.0837
 20
 287.4117
 11
 917.0651
 21
 289.3752
  0
LINE
  8
0
 62
 170 
 10
 917.0651
 20
 289.3752
 11
 918.0468
 21
 290.357
  0
LINE
  8
0
 62
 170 
 10
 918.0468
 20
 290.357
 11
 920.01
 21
 291.3389
  0
LINE
  8
0
 62
 170 
 10
 920.01
 20
 291.3389
 11
 921.9734
 21
 291.3392
  0
LINE
  8
0
 62
 170 
 10
 921.9734
 20
 291.3392
 11
 923.9369
 21
 290.3577
  0
LINE
  8
0
 62
 170 
 10
 923.9369
 20
 290.3577
 11
 926.8822
 21
 288.3947
  0
LINE
  8
0
 62
 170 
 10
 926.8822
 20
 288.3947
 11
 936.7003
 21
 278.5789
  0
LINE
  8
0
 62
 170 
 10
 936.7003
 20
 278.5789
 11
 936.6986
 21
 292.3226
  0
LINE
  8
0
 62
 170 
 10
 916.081
 20
 309.9906
 11
 916.0822
 21
 300.1737
  0
LINE
  8
0
 62
 170 
 10
 916.0822
 20
 300.1737
 11
 924.9175
 21
 299.1931
  0
LINE
  8
0
 62
 170 
 10
 924.9175
 20
 299.1931
 11
 923.9357
 21
 300.1746
  0
LINE
  8
0
 62
 170 
 10
 923.9357
 20
 300.1746
 11
 922.9537
 21
 303.1196
  0
LINE
  8
0
 62
 170 
 10
 922.9537
 20
 303.1196
 11
 922.9533
 21
 306.0646
  0
LINE
  8
0
 62
 170 
 10
 922.9533
 20
 306.0646
 11
 923.9347
 21
 309.0099
  0
LINE
  8
0
 62
 170 
 10
 923.9347
 20
 309.0099
 11
 925.8978
 21
 310.9734
  0
LINE
  8
0
 62
 170 
 10
 925.8978
 20
 310.9734
 11
 928.8428
 21
 311.9555
  0
LINE
  8
0
 62
 170 
 10
 928.8428
 20
 311.9555
 11
 930.8062
 21
 311.9557
  0
LINE
  8
0
 62
 170 
 10
 930.8062
 20
 311.9557
 11
 933.7513
 21
 310.9744
  0
LINE
  8
0
 62
 170 
 10
 933.7513
 20
 310.9744
 11
 935.715
 21
 309.0112
  0
LINE
  8
0
 62
 170 
 10
 935.715
 20
 309.0112
 11
 936.697
 21
 306.0663
  0
LINE
  8
0
 62
 170 
 10
 936.697
 20
 306.0663
 11
 936.6974
 21
 303.1212
  0
LINE
  8
0
 62
 170 
 10
 936.6974
 20
 303.1212
 11
 935.716
 21
 300.176
  0
LINE
  8
0
 62
 170 
 10
 935.716
 20
 300.176
 11
 934.7344
 21
 299.1942
  0
LINE
  8
0
 62
 170 
 10
 934.7344
 20
 299.1942
 11
 932.7712
 21
 298.2123
  0
LINE
  8
0
 62
 170 
 10
 934.732
 20
 319.8097
 11
 935.7138
 21
 318.8282
  0
LINE
  8
0
 62
 170 
 10
 935.7138
 20
 318.8282
 11
 936.6954
 21
 319.81
  0
LINE
  8
0
 62
 170 
 10
 936.6954
 20
 319.81
 11
 935.7136
 21
 320.7915
  0
LINE
  8
0
 62
 170 
 10
 935.7136
 20
 320.7915
 11
 934.732
 21
 319.8097
  0
LINE
  8
0
 62
 170 
 10
 920.9872
 20
 328.6433
 11
 920.0056
 21
 328.6432
  0
LINE
  8
0
 62
 170 
 10
 920.0056
 20
 328.6432
 11
 918.0421
 21
 329.6247
  0
LINE
  8
0
 62
 170 
 10
 918.0421
 20
 329.6247
 11
 917.0602
 21
 330.6063
  0
LINE
  8
0
 62
 170 
 10
 917.0602
 20
 330.6063
 11
 916.0784
 21
 332.5695
  0
LINE
  8
0
 62
 170 
 10
 916.0784
 20
 332.5695
 11
 916.0779
 21
 336.4963
  0
LINE
  8
0
 62
 170 
 10
 916.0779
 20
 336.4963
 11
 917.0593
 21
 338.4598
  0
LINE
  8
0
 62
 170 
 10
 917.0593
 20
 338.4598
 11
 918.0409
 21
 339.4416
  0
LINE
  8
0
 62
 170 
 10
 918.0409
 20
 339.4416
 11
 920.0042
 21
 340.4235
  0
LINE
  8
0
 62
 170 
 10
 920.0042
 20
 340.4235
 11
 921.9675
 21
 340.4238
  0
LINE
  8
0
 62
 170 
 10
 921.9675
 20
 340.4238
 11
 923.931
 21
 339.4423
  0
LINE
  8
0
 62
 170 
 10
 923.931
 20
 339.4423
 11
 926.8763
 21
 337.4792
  0
LINE
  8
0
 62
 170 
 10
 926.8763
 20
 337.4792
 11
 936.6945
 21
 327.6635
  0
LINE
  8
0
 62
 170 
 10
 936.6945
 20
 327.6635
 11
 936.6928
 21
 341.4072
  0
LINE
  8
0
 62
 170 
 10
 916.0752
 20
 359.0752
 11
 916.0764
 21
 349.2583
  0
LINE
  8
0
 62
 170 
 10
 916.0764
 20
 349.2583
 11
 924.9117
 21
 348.2776
  0
LINE
  8
0
 62
 170 
 10
 924.9117
 20
 348.2776
 11
 923.9299
 21
 349.2592
  0
LINE
  8
0
 62
 170 
 10
 923.9299
 20
 349.2592
 11
 922.9479
 21
 352.2042
  0
LINE
  8
0
 62
 170 
 10
 922.9479
 20
 352.2042
 11
 922.9475
 21
 355.1492
  0
LINE
  8
0
 62
 170 
 10
 922.9475
 20
 355.1492
 11
 923.9288
 21
 358.0944
  0
LINE
  8
0
 62
 170 
 10
 923.9288
 20
 358.0944
 11
 925.892
 21
 360.058
  0
LINE
  8
0
 62
 170 
 10
 925.892
 20
 360.058
 11
 928.837
 21
 361.0401
  0
LINE
  8
0
 62
 170 
 10
 928.837
 20
 361.0401
 11
 930.8004
 21
 361.0403
  0
LINE
  8
0
 62
 170 
 10
 930.8004
 20
 361.0403
 11
 933.7455
 21
 360.059
  0
LINE
  8
0
 62
 170 
 10
 933.7455
 20
 360.059
 11
 935.7092
 21
 358.0958
  0
LINE
  8
0
 62
 170 
 10
 935.7092
 20
 358.0958
 11
 936.6912
 21
 355.1509
  0
LINE
  8
0
 62
 170 
 10
 936.6912
 20
 355.1509
 11
 936.6915
 21
 352.2058
  0
LINE
  8
0
 62
 170 
 10
 936.6915
 20
 352.2058
 11
 935.7102
 21
 349.2606
  0
LINE
  8
0
 62
 170 
 10
 935.7102
 20
 349.2606
 11
 934.7286
 21
 348.2788
  0
LINE
  8
0
 62
 170 
 10
 934.7286
 20
 348.2788
 11
 932.7654
 21
 347.2969
  0
LINE
  8
0
 62
 170 
 10
 907.1042
 20
 475
 11
 907.0509
 21
 425
  0
LINE
  8
0
 62
 170 
 10
 907.0509
 20
 425
 11
 907.0293
 21
 375
  0
LINE
  8
0
 62
 170 
 10
 907.0293
 20
 375
 11
 907.03
 21
 371.9224
  0
LINE
  8
0
 62
 170 
 10
 907.0509
 20
 256
 11
 907.0509
 21
 225
  0
LINE
  8
0
 62
 170 
 10
 907.0509
 20
 225
 11
 907.0339
 21
 175
  0
LINE
  8
0
 62
 170 
 10
 907.0339
 20
 175
 11
 907.0131
 21
 125
  0
LINE
  8
0
 62
 170 
 10
 907.0131
 20
 125
 11
 907.0027
 21
 75
  0
LINE
  8
0
 62
 170 
 10
 907.0027
 20
 75
 11
 907.0509
 21
 25
  0
LINE
  8
0
 62
 170 
 10
 890.3611
 20
 261.8871
 11
 889.379
 21
 263.8503
  0
LINE
  8
0
 62
 170 
 10
 889.379
 20
 263.8503
 11
 886.4334
 21
 266.7949
  0
LINE
  8
0
 62
 170 
 10
 886.4334
 20
 266.7949
 11
 907.049
 21
 266.7986
  0
LINE
  8
0
 62
 170 
 10
 891.3396
 20
 279.5578
 11
 890.3579
 21
 279.5576
  0
LINE
  8
0
 62
 170 
 10
 890.3579
 20
 279.5576
 11
 888.3943
 21
 280.5389
  0
LINE
  8
0
 62
 170 
 10
 888.3943
 20
 280.5389
 11
 887.4125
 21
 281.5204
  0
LINE
  8
0
 62
 170 
 10
 887.4125
 20
 281.5204
 11
 886.4304
 21
 283.4836
  0
LINE
  8
0
 62
 170 
 10
 886.4304
 20
 283.4836
 11
 886.4297
 21
 287.4104
  0
LINE
  8
0
 62
 170 
 10
 886.4297
 20
 287.4104
 11
 887.411
 21
 289.374
  0
LINE
  8
0
 62
 170 
 10
 887.411
 20
 289.374
 11
 888.3926
 21
 290.3558
  0
LINE
  8
0
 62
 170 
 10
 888.3926
 20
 290.3558
 11
 890.3558
 21
 291.3379
  0
LINE
  8
0
 62
 170 
 10
 890.3558
 20
 291.3379
 11
 892.3192
 21
 291.3383
  0
LINE
  8
0
 62
 170 
 10
 892.3192
 20
 291.3383
 11
 894.2827
 21
 290.3569
  0
LINE
  8
0
 62
 170 
 10
 894.2827
 20
 290.3569
 11
 897.2281
 21
 288.394
  0
LINE
  8
0
 62
 170 
 10
 897.2281
 20
 288.394
 11
 907.0468
 21
 278.5789
  0
LINE
  8
0
 62
 170 
 10
 907.0468
 20
 278.5789
 11
 907.0444
 21
 292.3226
  0
LINE
  8
0
 62
 170 
 10
 886.4256
 20
 309.9893
 11
 886.4274
 21
 300.1724
  0
LINE
  8
0
 62
 170 
 10
 886.4274
 20
 300.1724
 11
 895.2628
 21
 299.1923
  0
LINE
  8
0
 62
 170 
 10
 895.2628
 20
 299.1923
 11
 894.2809
 21
 300.1738
  0
LINE
  8
0
 62
 170 
 10
 894.2809
 20
 300.1738
 11
 893.2987
 21
 303.1187
  0
LINE
  8
0
 62
 170 
 10
 893.2987
 20
 303.1187
 11
 893.2982
 21
 306.0638
  0
LINE
  8
0
 62
 170 
 10
 893.2982
 20
 306.0638
 11
 894.2794
 21
 309.0091
  0
LINE
  8
0
 62
 170 
 10
 894.2794
 20
 309.0091
 11
 896.2424
 21
 310.9728
  0
LINE
  8
0
 62
 170 
 10
 896.2424
 20
 310.9728
 11
 899.1873
 21
 311.955
  0
LINE
  8
0
 62
 170 
 10
 899.1873
 20
 311.955
 11
 901.1506
 21
 311.9554
  0
LINE
  8
0
 62
 170 
 10
 901.1506
 20
 311.9554
 11
 904.0959
 21
 310.9742
  0
LINE
  8
0
 62
 170 
 10
 904.0959
 20
 310.9742
 11
 906.0596
 21
 309.0112
  0
LINE
  8
0
 62
 170 
 10
 906.0596
 20
 309.0112
 11
 907.0419
 21
 306.0663
  0
LINE
  8
0
 62
 170 
 10
 907.0419
 20
 306.0663
 11
 907.0424
 21
 303.1212
  0
LINE
  8
0
 62
 170 
 10
 907.0424
 20
 303.1212
 11
 906.0612
 21
 300.176
  0
LINE
  8
0
 62
 170 
 10
 906.0612
 20
 300.176
 11
 905.0797
 21
 299.1941
  0
LINE
  8
0
 62
 170 
 10
 905.0797
 20
 299.1941
 11
 903.1165
 21
 298.212
  0
LINE
  8
0
 62
 170 
 10
 905.076
 20
 319.8096
 11
 906.0579
 21
 318.8281
  0
LINE
  8
0
 62
 170 
 10
 906.0579
 20
 318.8281
 11
 907.0394
 21
 319.81
  0
LINE
  8
0
 62
 170 
 10
 907.0394
 20
 319.81
 11
 906.0575
 21
 320.7915
  0
LINE
  8
0
 62
 170 
 10
 906.0575
 20
 320.7915
 11
 905.076
 21
 319.8096
  0
LINE
  8
0
 62
 170 
 10
 886.4203
 20
 339.4401
 11
 886.4221
 21
 329.6232
  0
LINE
  8
0
 62
 170 
 10
 886.4221
 20
 329.6232
 11
 895.2575
 21
 328.6431
  0
LINE
  8
0
 62
 170 
 10
 895.2575
 20
 328.6431
 11
 894.2756
 21
 329.6246
  0
LINE
  8
0
 62
 170 
 10
 894.2756
 20
 329.6246
 11
 893.2934
 21
 332.5695
  0
LINE
  8
0
 62
 170 
 10
 893.2934
 20
 332.5695
 11
 893.2928
 21
 335.5146
  0
LINE
  8
0
 62
 170 
 10
 893.2928
 20
 335.5146
 11
 894.274
 21
 338.4598
  0
LINE
  8
0
 62
 170 
 10
 894.274
 20
 338.4598
 11
 896.2371
 21
 340.4236
  0
LINE
  8
0
 62
 170 
 10
 896.2371
 20
 340.4236
 11
 899.1819
 21
 341.4058
  0
LINE
  8
0
 62
 170 
 10
 899.1819
 20
 341.4058
 11
 901.1453
 21
 341.4061
  0
LINE
  8
0
 62
 170 
 10
 901.1453
 20
 341.4061
 11
 904.0906
 21
 340.425
  0
LINE
  8
0
 62
 170 
 10
 904.0906
 20
 340.425
 11
 906.0543
 21
 338.4619
  0
LINE
  8
0
 62
 170 
 10
 906.0543
 20
 338.4619
 11
 907.0366
 21
 335.517
  0
LINE
  8
0
 62
 170 
 10
 907.0366
 20
 335.517
 11
 907.037
 21
 332.572
  0
LINE
  8
0
 62
 170 
 10
 907.037
 20
 332.572
 11
 906.0559
 21
 329.6267
  0
LINE
  8
0
 62
 170 
 10
 906.0559
 20
 329.6267
 11
 905.0744
 21
 328.6448
  0
LINE
  8
0
 62
 170 
 10
 905.0744
 20
 328.6448
 11
 903.1112
 21
 327.6628
  0
LINE
  8
0
 62
 170 
 10
 886.4178
 20
 353.1838
 11
 887.4
 21
 350.2389
  0
LINE
  8
0
 62
 170 
 10
 887.4
 20
 350.2389
 11
 890.3455
 21
 348.276
  0
LINE
  8
0
 62
 170 
 10
 890.3455
 20
 348.276
 11
 895.2541
 21
 347.2952
  0
LINE
  8
0
 62
 170 
 10
 895.2541
 20
 347.2952
 11
 898.1992
 21
 347.2957
  0
LINE
  8
0
 62
 170 
 10
 898.1992
 20
 347.2957
 11
 903.1075
 21
 348.2783
  0
LINE
  8
0
 62
 170 
 10
 903.1075
 20
 348.2783
 11
 906.0522
 21
 350.2422
  0
LINE
  8
0
 62
 170 
 10
 906.0522
 20
 350.2422
 11
 907.0334
 21
 353.1875
  0
LINE
  8
0
 62
 170 
 10
 907.0334
 20
 353.1875
 11
 907.033
 21
 355.1509
  0
LINE
  8
0
 62
 170 
 10
 907.033
 20
 355.1509
 11
 906.0508
 21
 358.0958
  0
LINE
  8
0
 62
 170 
 10
 906.0508
 20
 358.0958
 11
 903.1053
 21
 360.0586
  0
LINE
  8
0
 62
 170 
 10
 903.1053
 20
 360.0586
 11
 898.1967
 21
 361.0394
  0
LINE
  8
0
 62
 170 
 10
 898.1967
 20
 361.0394
 11
 895.2516
 21
 361.0389
  0
LINE
  8
0
 62
 170 
 10
 895.2516
 20
 361.0389
 11
 890.3434
 21
 360.0563
  0
LINE
  8
0
 62
 170 
 10
 890.3434
 20
 360.0563
 11
 887.3986
 21
 358.0924
  0
LINE
  8
0
 62
 170 
 10
 887.3986
 20
 358.0924
 11
 886.4175
 21
 355.1472
  0
LINE
  8
0
 62
 170 
 10
 886.4175
 20
 355.1472
 11
 886.4178
 21
 353.1838
  0
LINE
  8
0
 62
 170 
 10
 822.0956
 20
 475
 11
 821.9989
 21
 425
  0
LINE
  8
0
 62
 170 
 10
 821.9989
 20
 425
 11
 821.9927
 21
 375
  0
LINE
  8
0
 62
 170 
 10
 821.9927
 20
 375
 11
 821.9927
 21
 371.9225
  0
LINE
  8
0
 62
 170 
 10
 821.9534
 20
 256
 11
 821.8893
 21
 225
  0
LINE
  8
0
 62
 170 
 10
 821.8893
 20
 225
 11
 821.8893
 21
 175
  0
LINE
  8
0
 62
 170 
 10
 821.8893
 20
 175
 11
 821.8893
 21
 125
  0
LINE
  8
0
 62
 170 
 10
 821.8893
 20
 125
 11
 821.8962
 21
 75
  0
LINE
  8
0
 62
 170 
 10
 821.8962
 20
 75
 11
 821.9989
 21
 25
  0
LINE
  8
0
 62
 170 
 10
 805.2667
 20
 261.8958
 11
 804.2856
 21
 263.8595
  0
LINE
  8
0
 62
 170 
 10
 804.2856
 20
 263.8595
 11
 801.3416
 21
 266.8056
  0
LINE
  8
0
 62
 170 
 10
 801.3416
 20
 266.8056
 11
 821.9571
 21
 266.7986
  0
LINE
  8
0
 62
 170 
 10
 806.2543
 20
 279.5659
 11
 805.2726
 21
 279.5663
  0
LINE
  8
0
 62
 170 
 10
 805.2726
 20
 279.5663
 11
 803.3096
 21
 280.5486
  0
LINE
  8
0
 62
 170 
 10
 803.3096
 20
 280.5486
 11
 802.3282
 21
 281.5306
  0
LINE
  8
0
 62
 170 
 10
 802.3282
 20
 281.5306
 11
 801.3472
 21
 283.4944
  0
LINE
  8
0
 62
 170 
 10
 801.3472
 20
 283.4944
 11
 801.3486
 21
 287.4211
  0
LINE
  8
0
 62
 170 
 10
 801.3486
 20
 287.4211
 11
 802.3309
 21
 289.3842
  0
LINE
  8
0
 62
 170 
 10
 802.3309
 20
 289.3842
 11
 803.3129
 21
 290.3655
  0
LINE
  8
0
 62
 170 
 10
 803.3129
 20
 290.3655
 11
 805.2767
 21
 291.3466
  0
LINE
  8
0
 62
 170 
 10
 805.2767
 20
 291.3466
 11
 807.2401
 21
 291.3459
  0
LINE
  8
0
 62
 170 
 10
 807.2401
 20
 291.3459
 11
 809.2031
 21
 290.3636
  0
LINE
  8
0
 62
 170 
 10
 809.2031
 20
 290.3636
 11
 812.1475
 21
 288.3992
  0
LINE
  8
0
 62
 170 
 10
 812.1475
 20
 288.3992
 11
 821.9611
 21
 278.5789
  0
LINE
  8
0
 62
 170 
 10
 821.9611
 20
 278.5789
 11
 821.9658
 21
 292.3226
  0
LINE
  8
0
 62
 170 
 10
 801.3562
 20
 310
 11
 801.3529
 21
 300.1831
  0
LINE
  8
0
 62
 170 
 10
 801.3529
 20
 300.1831
 11
 810.1878
 21
 299.1984
  0
LINE
  8
0
 62
 170 
 10
 810.1878
 20
 299.1984
 11
 809.2064
 21
 300.1805
  0
LINE
  8
0
 62
 170 
 10
 809.2064
 20
 300.1805
 11
 808.2257
 21
 303.1259
  0
LINE
  8
0
 62
 170 
 10
 808.2257
 20
 303.1259
 11
 808.2267
 21
 306.071
  0
LINE
  8
0
 62
 170 
 10
 808.2267
 20
 306.071
 11
 809.2094
 21
 309.0157
  0
LINE
  8
0
 62
 170 
 10
 809.2094
 20
 309.0157
 11
 811.1735
 21
 310.9784
  0
LINE
  8
0
 62
 170 
 10
 811.1735
 20
 310.9784
 11
 814.1189
 21
 311.9591
  0
LINE
  8
0
 62
 170 
 10
 814.1189
 20
 311.9591
 11
 816.0823
 21
 311.9584
  0
LINE
  8
0
 62
 170 
 10
 816.0823
 20
 311.9584
 11
 819.027
 21
 310.9757
  0
LINE
  8
0
 62
 170 
 10
 819.027
 20
 310.9757
 11
 820.9897
 21
 309.0117
  0
LINE
  8
0
 62
 170 
 10
 820.9897
 20
 309.0117
 11
 821.9704
 21
 306.0663
  0
LINE
  8
0
 62
 170 
 10
 821.9704
 20
 306.0663
 11
 821.9694
 21
 303.1212
  0
LINE
  8
0
 62
 170 
 10
 821.9694
 20
 303.1212
 11
 820.9868
 21
 300.1765
  0
LINE
  8
0
 62
 170 
 10
 820.9868
 20
 300.1765
 11
 820.0047
 21
 299.1951
  0
LINE
  8
0
 62
 170 
 10
 820.0047
 20
 299.1951
 11
 818.041
 21
 298.2141
  0
LINE
  8
0
 62
 170 
 10
 820.0117
 20
 319.8106
 11
 820.993
 21
 318.8286
  0
LINE
  8
0
 62
 170 
 10
 820.993
 20
 318.8286
 11
 821.9751
 21
 319.81
  0
LINE
  8
0
 62
 170 
 10
 821.9751
 20
 319.81
 11
 820.9937
 21
 320.792
  0
LINE
  8
0
 62
 170 
 10
 820.9937
 20
 320.792
 11
 820.0117
 21
 319.8106
  0
LINE
  8
0
 62
 170 
 10
 801.3669
 20
 341.4142
 11
 821.9791
 21
 331.5903
  0
LINE
  8
0
 62
 170 
 10
 801.3622
 20
 327.6705
 11
 801.3669
 21
 341.4142
  0
LINE
  8
0
 62
 170 
 10
 801.3729
 20
 359.0846
 11
 801.3696
 21
 349.2677
  0
LINE
  8
0
 62
 170 
 10
 801.3696
 20
 349.2677
 11
 810.2045
 21
 348.283
  0
LINE
  8
0
 62
 170 
 10
 810.2045
 20
 348.283
 11
 809.2231
 21
 349.265
  0
LINE
  8
0
 62
 170 
 10
 809.2231
 20
 349.265
 11
 808.2424
 21
 352.2104
  0
LINE
  8
0
 62
 170 
 10
 808.2424
 20
 352.2104
 11
 808.2434
 21
 355.1555
  0
LINE
  8
0
 62
 170 
 10
 808.2434
 20
 355.1555
 11
 809.2261
 21
 358.1003
  0
LINE
  8
0
 62
 170 
 10
 809.2261
 20
 358.1003
 11
 811.1901
 21
 360.063
  0
LINE
  8
0
 62
 170 
 10
 811.1901
 20
 360.063
 11
 814.1356
 21
 361.0437
  0
LINE
  8
0
 62
 170 
 10
 814.1356
 20
 361.0437
 11
 816.0989
 21
 361.043
  0
LINE
  8
0
 62
 170 
 10
 816.0989
 20
 361.043
 11
 819.0436
 21
 360.0603
  0
LINE
  8
0
 62
 170 
 10
 819.0436
 20
 360.0603
 11
 821.0064
 21
 358.0963
  0
LINE
  8
0
 62
 170 
 10
 821.0064
 20
 358.0963
 11
 821.9871
 21
 355.1509
  0
LINE
  8
0
 62
 170 
 10
 821.9871
 20
 355.1509
 11
 821.9861
 21
 352.2058
  0
LINE
  8
0
 62
 170 
 10
 821.9861
 20
 352.2058
 11
 821.0034
 21
 349.261
  0
LINE
  8
0
 62
 170 
 10
 821.0034
 20
 349.261
 11
 820.0214
 21
 348.2797
  0
LINE
  8
0
 62
 170 
 10
 820.0214
 20
 348.2797
 11
 818.0576
 21
 347.2987
  0
LINE
  8
0
 62
 170 
 10
 507.9951
 20
 475
 11
 507.8282
 21
 425
  0
LINE
  8
0
 62
 170 
 10
 507.8282
 20
 425
 11
 507.8282
 21
 375
  0
LINE
  8
0
 62
 170 
 10
 507.8282
 20
 375
 11
 507.8282
 21
 371.9226
  0
LINE
  8
0
 62
 170 
 10
 507.8282
 20
 256
 11
 507.8282
 21
 225
  0
LINE
  8
0
 62
 170 
 10
 507.8282
 20
 225
 11
 507.8853
 21
 175
  0
LINE
  8
0
 62
 170 
 10
 507.8853
 20
 175
 11
 507.9951
 21
 125
  0
LINE
  8
0
 62
 170 
 10
 507.9951
 20
 125
 11
 507.9951
 21
 75
  0
LINE
  8
0
 62
 170 
 10
 507.9951
 20
 75
 11
 508.0517
 21
 25
  0
LINE
  8
0
 62
 170 
 10
 491.1394
 20
 261.8901
 11
 490.1577
 21
 263.8535
  0
LINE
  8
0
 62
 170 
 10
 490.1577
 20
 263.8535
 11
 487.2126
 21
 266.7986
  0
LINE
  8
0
 62
 170 
 10
 487.2126
 20
 266.7986
 11
 507.8282
 21
 266.7986
  0
LINE
  8
0
 62
 170 
 10
 492.1211
 20
 279.5606
 11
 491.1394
 21
 279.5606
  0
LINE
  8
0
 62
 170 
 10
 491.1394
 20
 279.5606
 11
 489.176
 21
 280.5423
  0
LINE
  8
0
 62
 170 
 10
 489.176
 20
 280.5423
 11
 488.1943
 21
 281.524
  0
LINE
  8
0
 62
 170 
 10
 488.1943
 20
 281.524
 11
 487.2126
 21
 283.4874
  0
LINE
  8
0
 62
 170 
 10
 487.2126
 20
 283.4874
 11
 487.2126
 21
 287.4141
  0
LINE
  8
0
 62
 170 
 10
 487.2126
 20
 287.4141
 11
 488.1943
 21
 289.3775
  0
LINE
  8
0
 62
 170 
 10
 488.1943
 20
 289.3775
 11
 489.176
 21
 290.3592
  0
LINE
  8
0
 62
 170 
 10
 489.176
 20
 290.3592
 11
 491.1394
 21
 291.3409
  0
LINE
  8
0
 62
 170 
 10
 491.1394
 20
 291.3409
 11
 493.1028
 21
 291.3409
  0
LINE
  8
0
 62
 170 
 10
 493.1028
 20
 291.3409
 11
 495.0662
 21
 290.3592
  0
LINE
  8
0
 62
 170 
 10
 495.0662
 20
 290.3592
 11
 498.0112
 21
 288.3958
  0
LINE
  8
0
 62
 170 
 10
 498.0112
 20
 288.3958
 11
 507.8282
 21
 278.5789
  0
LINE
  8
0
 62
 170 
 10
 507.8282
 20
 278.5789
 11
 507.8282
 21
 292.3226
  0
LINE
  8
0
 62
 170 
 10
 490.1577
 20
 310.9747
 11
 488.1943
 21
 309.993
  0
LINE
  8
0
 62
 170 
 10
 488.1943
 20
 309.993
 11
 487.2126
 21
 307.048
  0
LINE
  8
0
 62
 170 
 10
 487.2126
 20
 307.048
 11
 487.2126
 21
 305.0846
  0
LINE
  8
0
 62
 170 
 10
 487.2126
 20
 305.0846
 11
 488.1943
 21
 302.1395
  0
LINE
  8
0
 62
 170 
 10
 488.1943
 20
 302.1395
 11
 491.1394
 21
 300.1761
  0
LINE
  8
0
 62
 170 
 10
 491.1394
 20
 300.1761
 11
 496.0479
 21
 299.1944
  0
LINE
  8
0
 62
 170 
 10
 496.0479
 20
 299.1944
 11
 500.9563
 21
 299.1944
  0
LINE
  8
0
 62
 170 
 10
 500.9563
 20
 299.1944
 11
 504.8831
 21
 300.1761
  0
LINE
  8
0
 62
 170 
 10
 504.8831
 20
 300.1761
 11
 506.8465
 21
 302.1395
  0
LINE
  8
0
 62
 170 
 10
 506.8465
 20
 302.1395
 11
 507.8282
 21
 305.0846
  0
LINE
  8
0
 62
 170 
 10
 507.8282
 20
 305.0846
 11
 507.8282
 21
 306.0663
  0
LINE
  8
0
 62
 170 
 10
 507.8282
 20
 306.0663
 11
 506.8465
 21
 309.0114
  0
LINE
  8
0
 62
 170 
 10
 506.8465
 20
 309.0114
 11
 504.8831
 21
 310.9747
  0
LINE
  8
0
 62
 170 
 10
 504.8831
 20
 310.9747
 11
 501.938
 21
 311.9564
  0
LINE
  8
0
 62
 170 
 10
 501.938
 20
 311.9564
 11
 500.9563
 21
 311.9564
  0
LINE
  8
0
 62
 170 
 10
 500.9563
 20
 311.9564
 11
 498.0112
 21
 310.9747
  0
LINE
  8
0
 62
 170 
 10
 498.0112
 20
 310.9747
 11
 496.0479
 21
 309.0114
  0
LINE
  8
0
 62
 170 
 10
 496.0479
 20
 309.0114
 11
 495.0662
 21
 306.0663
  0
LINE
  8
0
 62
 170 
 10
 495.0662
 20
 306.0663
 11
 495.0662
 21
 305.0846
  0
LINE
  8
0
 62
 170 
 10
 495.0662
 20
 305.0846
 11
 496.0479
 21
 302.1395
  0
LINE
  8
0
 62
 170 
 10
 496.0479
 20
 302.1395
 11
 498.0112
 21
 300.1761
  0
LINE
  8
0
 62
 170 
 10
 498.0112
 20
 300.1761
 11
 500.9563
 21
 299.1944
  0
LINE
  8
0
 62
 170 
 10
 505.8648
 20
 319.81
 11
 506.8465
 21
 318.8283
  0
LINE
  8
0
 62
 170 
 10
 506.8465
 20
 318.8283
 11
 507.8282
 21
 319.81
  0
LINE
  8
0
 62
 170 
 10
 507.8282
 20
 319.81
 11
 506.8465
 21
 320.7917
  0
LINE
  8
0
 62
 170 
 10
 506.8465
 20
 320.7917
 11
 505.8648
 21
 319.81
  0
LINE
  8
0
 62
 170 
 10
 487.2126
 20
 333.5536
 11
 488.1943
 21
 330.6086
  0
LINE
  8
0
 62
 170 
 10
 488.1943
 20
 330.6086
 11
 491.1394
 21
 328.6452
  0
LINE
  8
0
 62
 170 
 10
 491.1394
 20
 328.6452
 11
 496.0479
 21
 327.6635
  0
LINE
  8
0
 62
 170 
 10
 496.0479
 20
 327.6635
 11
 498.9929
 21
 327.6635
  0
LINE
  8
0
 62
 170 
 10
 498.9929
 20
 327.6635
 11
 503.9014
 21
 328.6452
  0
LINE
  8
0
 62
 170 
 10
 503.9014
 20
 328.6452
 11
 506.8465
 21
 330.6086
  0
LINE
  8
0
 62
 170 
 10
 506.8465
 20
 330.6086
 11
 507.8282
 21
 333.5536
  0
LINE
  8
0
 62
 170 
 10
 507.8282
 20
 333.5536
 11
 507.8282
 21
 335.517
  0
LINE
  8
0
 62
 170 
 10
 507.8282
 20
 335.517
 11
 506.8465
 21
 338.4621
  0
LINE
  8
0
 62
 170 
 10
 506.8465
 20
 338.4621
 11
 503.9014
 21
 340.4255
  0
LINE
  8
0
 62
 170 
 10
 503.9014
 20
 340.4255
 11
 498.9929
 21
 341.4072
  0
LINE
  8
0
 62
 170 
 10
 498.9929
 20
 341.4072
 11
 496.0479
 21
 341.4072
  0
LINE
  8
0
 62
 170 
 10
 496.0479
 20
 341.4072
 11
 491.1394
 21
 340.4255
  0
LINE
  8
0
 62
 170 
 10
 491.1394
 20
 340.4255
 11
 488.1943
 21
 338.4621
  0
LINE
  8
0
 62
 170 
 10
 488.1943
 20
 338.4621
 11
 487.2126
 21
 335.517
  0
LINE
  8
0
 62
 170 
 10
 487.2126
 20
 335.517
 11
 487.2126
 21
 333.5536
  0
LINE
  8
0
 62
 170 
 10
 487.2126
 20
 353.1875
 11
 488.1943
 21
 350.2424
  0
LINE
  8
0
 62
 170 
 10
 488.1943
 20
 350.2424
 11
 491.1394
 21
 348.279
  0
LINE
  8
0
 62
 170 
 10
 491.1394
 20
 348.279
 11
 496.0479
 21
 347.2973
  0
LINE
  8
0
 62
 170 
 10
 496.0479
 20
 347.2973
 11
 498.9929
 21
 347.2973
  0
LINE
  8
0
 62
 170 
 10
 498.9929
 20
 347.2973
 11
 503.9014
 21
 348.279
  0
LINE
  8
0
 62
 170 
 10
 503.9014
 20
 348.279
 11
 506.8465
 21
 350.2424
  0
LINE
  8
0
 62
 170 
 10
 506.8465
 20
 350.2424
 11
 507.8282
 21
 353.1875
  0
LINE
  8
0
 62
 170 
 10
 507.8282
 20
 353.1875
 11
 507.8282
 21
 355.1509
  0
LINE
  8
0
 62
 170 
 10
 507.8282
 20
 355.1509
 11
 506.8465
 21
 358.0959
  0
LINE
  8
0
 62
 170 
 10
 506.8465
 20
 358.0959
 11
 503.9014
 21
 360.0593
  0
LINE
  8
0
 62
 170 
 10
 503.9014
 20
 360.0593
 11
 498.9929
 21
 361.041
  0
LINE
  8
0
 62
 170 
 10
 498.9929
 20
 361.041
 11
 496.0479
 21
 361.041
  0
LINE
  8
0
 62
 170 
 10
 496.0479
 20
 361.041
 11
 491.1394
 21
 360.0593
  0
LINE
  8
0
 62
 170 
 10
 491.1394
 20
 360.0593
 11
 488.1943
 21
 358.0959
  0
LINE
  8
0
 62
 170 
 10
 488.1943
 20
 358.0959
 11
 487.2126
 21
 355.1509
  0
LINE
  8
0
 62
 170 
 10
 487.2126
 20
 355.1509
 11
 487.2126
 21
 353.1875
  0
SOLID
  8
0
 62
 174 
 10
 1950
 20
 500
 30
0
 11
 2000
 21
 500
 31
0
 12
 1950
 22
 450
 32
0
 13
 2000
 23
 450
 33
0
  0
SOLID
  8
0
 62
 174 
 10
 1950
 20
 450
 30
0
 11
 2000
 21
 450
 31
0
 12
 1950
 22
 400
 32
0
 13
 2000
 23
 400
 33
0
  0
SOLID
  8
0
 62
 174 
 10
 1950
 20
 400
 30
0
 11
 2000
 21
 400
 31
0
 12
 1950
 22
 350
 32
0
 13
 2000
 23
 350
 33
0
  0
SOLID
  8
0
 62
 174 
 10
 1950
 20
 350
 30
0
 11
 2000
 21
 350
 31
0
 12
 1950
 22
 300
 32
0
 13
 2000
 23
 300
 33
0
  0
SOLID
  8
0
 62
 174 
 10
 1950
 20
 300
 30
0
 11
 2000
 21
 300
 31
0
 12
 1950
 22
 250
 32
0
 13
 2000
 23
 250
 33
0
  0
SOLID
  8
0
 62
 174 
 10
 1950
 20
 250
 30
0
 11
 2000
 21
 250
 31
0
 12
 1950
 22
 200
 32
0
 13
 2000
 23
 200
 33
0
  0
SOLID
  8
0
 62
 174 
 10
 1950
 20
 200
 30
0
 11
 2000
 21
 200
 31
0
 12
 1950
 22
 150
 32
0
 13
 2000
 23
 150
 33
0
  0
SOLID
  8
0
 62
 174 
 10
 1950
 20
 150
 30
0
 11
 2000
 21
 150
 31
0
 12
 1950
 22
 100
 32
0
 13
 2000
 23
 100
 33
0
  0
SOLID
  8
0
 62
 174 
 10
 1950
 20
 100
 30
0
 11
 2000
 21
 100
 31
0
 12
 1950
 22
 50
 32
0
 13
 2000
 23
 50
 33
0
  0
SOLID
  8
0
 62
 174 
 10
 1950
 20
 50
 30
0
 11
 2000
 21
 50
 31
0
 12
 1950
 22
 0
 32
0
 13
 2000
 23
 0
 33
0
  0
CIRCLE
  8
0
 62
 178 
 10
 700
 20
 200
 40
 7.8125
  0
LINE
  8
0
 62
 178 
 10
 700
 20
 186.3281
 11
 700
 21
 215.625
  0
LINE
  8
0
 62
 178 
 10
 713.6719
 20
 200
 11
 684.375
 21
 200
  0
LINE
  8
0
 62
 178 
 10
 721.2054
 20
 184.561
 11
 723.0655
 21
 185.4911
  0
LINE
  8
0
 62
 178 
 10
 723.0655
 20
 185.4911
 11
 725.8557
 21
 188.2813
  0
LINE
  8
0
 62
 178 
 10
 725.8557
 20
 188.2813
 11
 725.8557
 21
 168.75
  0
CIRCLE
  8
0
 62
 178 
 10
 700
 20
 400
 40
 7.8125
  0
LINE
  8
0
 62
 178 
 10
 700
 20
 386.3281
 11
 700
 21
 415.625
  0
LINE
  8
0
 62
 178 
 10
 713.6719
 20
 400
 11
 684.375
 21
 400
  0
LINE
  8
0
 62
 178 
 10
 719.3452
 20
 383.631
 11
 719.3452
 21
 384.561
  0
LINE
  8
0
 62
 178 
 10
 719.3452
 20
 384.561
 11
 720.2753
 21
 386.4211
  0
LINE
  8
0
 62
 178 
 10
 720.2753
 20
 386.4211
 11
 721.2054
 21
 387.3512
  0
LINE
  8
0
 62
 178 
 10
 721.2054
 20
 387.3512
 11
 723.0655
 21
 388.2813
  0
LINE
  8
0
 62
 178 
 10
 723.0655
 20
 388.2813
 11
 726.7857
 21
 388.2813
  0
LINE
  8
0
 62
 178 
 10
 726.7857
 20
 388.2813
 11
 728.6458
 21
 387.3512
  0
LINE
  8
0
 62
 178 
 10
 728.6458
 20
 387.3512
 11
 729.5759
 21
 386.4211
  0
LINE
  8
0
 62
 178 
 10
 729.5759
 20
 386.4211
 11
 730.506
 21
 384.561
  0
LINE
  8
0
 62
 178 
 10
 730.506
 20
 384.561
 11
 730.506
 21
 382.7009
  0
LINE
  8
0
 62
 178 
 10
 730.506
 20
 382.7009
 11
 729.5759
 21
 380.8408
  0
LINE
  8
0
 62
 178 
 10
 729.5759
 20
 380.8408
 11
 727.7158
 21
 378.0506
  0
LINE
  8
0
 62
 178 
 10
 727.7158
 20
 378.0506
 11
 718.4152
 21
 368.75
  0
LINE
  8
0
 62
 178 
 10
 718.4152
 20
 368.75
 11
 731.436
 21
 368.75
  0
CIRCLE
  8
0
 62
 178 
 10
 1000
 20
 200
 40
 7.8125
  0
LINE
  8
0
 62
 178 
 10
 1000
 20
 186.3281
 11
 1000
 21
 215.625
  0
LINE
  8
0
 62
 178 
 10
 1013.672
 20
 200
 11
 984.375
 21
 200
  0
LINE
  8
0
 62
 178 
 10
 1020.275
 20
 188.2813
 11
 1030.506
 21
 188.2813
  0
LINE
  8
0
 62
 178 
 10
 1030.506
 20
 188.2813
 11
 1024.926
 21
 180.8408
  0
LINE
  8
0
 62
 178 
 10
 1024.926
 20
 180.8408
 11
 1027.716
 21
 180.8408
  0
LINE
  8
0
 62
 178 
 10
 1027.716
 20
 180.8408
 11
 1029.576
 21
 179.9107
  0
LINE
  8
0
 62
 178 
 10
 1029.576
 20
 179.9107
 11
 1030.506
 21
 178.9807
  0
LINE
  8
0
 62
 178 
 10
 1030.506
 20
 178.9807
 11
 1031.436
 21
 176.1905
  0
LINE
  8
0
 62
 178 
 10
 1031.436
 20
 176.1905
 11
 1031.436
 21
 174.3304
  0
LINE
  8
0
 62
 178 
 10
 1031.436
 20
 174.3304
 11
 1030.506
 21
 171.5402
  0
LINE
  8
0
 62
 178 
 10
 1030.506
 20
 171.5402
 11
 1028.646
 21
 169.6801
  0
LINE
  8
0
 62
 178 
 10
 1028.646
 20
 169.6801
 11
 1025.856
 21
 168.75
  0
LINE
  8
0
 62
 178 
 10
 1025.856
 20
 168.75
 11
 1023.065
 21
 168.75
  0
LINE
  8
0
 62
 178 
 10
 1023.065
 20
 168.75
 11
 1020.275
 21
 169.6801
  0
LINE
  8
0
 62
 178 
 10
 1020.275
 20
 169.6801
 11
 1019.345
 21
 170.6101
  0
LINE
  8
0
 62
 178 
 10
 1019.345
 20
 170.6101
 11
 1018.415
 21
 172.4702
  0
CIRCLE
  8
0
 62
 178 
 10
 1000
 20
 400
 40
 7.8125
  0
LINE
  8
0
 62
 178 
 10
 1000
 20
 386.3281
 11
 1000
 21
 415.625
  0
LINE
  8
0
 62
 178 
 10
 1013.672
 20
 400
 11
 984.375
 21
 400
  0
LINE
  8
0
 62
 178 
 10
 1027.716
 20
 388.2813
 11
 1018.415
 21
 375.2604
  0
LINE
  8
0
 62
 178 
 10
 1018.415
 20
 375.2604
 11
 1032.366
 21
 375.2604
  0
LINE
  8
0
 62
 178 
 10
 1027.716
 20
 388.2813
 11
 1027.716
 21
 368.75
  0
CIRCLE
  8
0
 62
 178 
 10
 1300
 20
 200
 40
 7.8125
  0
LINE
  8
0
 62
 178 
 10
 1300
 20
 186.3281
 11
 1300
 21
 215.625
  0
LINE
  8
0
 62
 178 
 10
 1313.672
 20
 200
 11
 1284.375
 21
 200
  0
LINE
  8
0
 62
 178 
 10
 1329.576
 20
 188.2813
 11
 1320.275
 21
 188.2813
  0
LINE
  8
0
 62
 178 
 10
 1320.275
 20
 188.2813
 11
 1319.345
 21
 179.9107
  0
LINE
  8
0
 62
 178 
 10
 1319.345
 20
 179.9107
 11
 1320.275
 21
 180.8408
  0
LINE
  8
0
 62
 178 
 10
 1320.275
 20
 180.8408
 11
 1323.065
 21
 181.7708
  0
LINE
  8
0
 62
 178 
 10
 1323.065
 20
 181.7708
 11
 1325.856
 21
 181.7708
  0
LINE
  8
0
 62
 178 
 10
 1325.856
 20
 181.7708
 11
 1328.646
 21
 180.8408
  0
LINE
  8
0
 62
 178 
 10
 1328.646
 20
 180.8408
 11
 1330.506
 21
 178.9807
  0
LINE
  8
0
 62
 178 
 10
 1330.506
 20
 178.9807
 11
 1331.436
 21
 176.1905
  0
LINE
  8
0
 62
 178 
 10
 1331.436
 20
 176.1905
 11
 1331.436
 21
 174.3304
  0
LINE
  8
0
 62
 178 
 10
 1331.436
 20
 174.3304
 11
 1330.506
 21
 171.5402
  0
LINE
  8
0
 62
 178 
 10
 1330.506
 20
 171.5402
 11
 1328.646
 21
 169.6801
  0
LINE
  8
0
 62
 178 
 10
 1328.646
 20
 169.6801
 11
 1325.856
 21
 168.75
  0
LINE
  8
0
 62
 178 
 10
 1325.856
 20
 168.75
 11
 1323.065
 21
 168.75
  0
LINE
  8
0
 62
 178 
 10
 1323.065
 20
 168.75
 11
 1320.275
 21
 169.6801
  0
LINE
  8
0
 62
 178 
 10
 1320.275
 20
 169.6801
 11
 1319.345
 21
 170.6101
  0
LINE
  8
0
 62
 178 
 10
 1319.345
 20
 170.6101
 11
 1318.415
 21
 172.4702
  0
CIRCLE
  8
0
 62
 178 
 10
 1300
 20
 400
 40
 7.8125
  0
LINE
  8
0
 62
 178 
 10
 1300
 20
 386.3281
 11
 1300
 21
 415.625
  0
LINE
  8
0
 62
 178 
 10
 1313.672
 20
 400
 11
 1284.375
 21
 400
  0
LINE
  8
0
 62
 178 
 10
 1330.506
 20
 385.4911
 11
 1329.576
 21
 387.3512
  0
LINE
  8
0
 62
 178 
 10
 1329.576
 20
 387.3512
 11
 1326.786
 21
 388.2813
  0
LINE
  8
0
 62
 178 
 10
 1326.786
 20
 388.2813
 11
 1324.926
 21
 388.2813
  0
LINE
  8
0
 62
 178 
 10
 1324.926
 20
 388.2813
 11
 1322.135
 21
 387.3512
  0
LINE
  8
0
 62
 178 
 10
 1322.135
 20
 387.3512
 11
 1320.275
 21
 384.561
  0
LINE
  8
0
 62
 178 
 10
 1320.275
 20
 384.561
 11
 1319.345
 21
 379.9107
  0
LINE
  8
0
 62
 178 
 10
 1319.345
 20
 379.9107
 11
 1319.345
 21
 375.2604
  0
LINE
  8
0
 62
 178 
 10
 1319.345
 20
 375.2604
 11
 1320.275
 21
 371.5402
  0
LINE
  8
0
 62
 178 
 10
 1320.275
 20
 371.5402
 11
 1322.135
 21
 369.6801
  0
LINE
  8
0
 62
 178 
 10
 1322.135
 20
 369.6801
 11
 1324.926
 21
 368.75
  0
LINE
  8
0
 62
 178 
 10
 1324.926
 20
 368.75
 11
 1325.856
 21
 368.75
  0
LINE
  8
0
 62
 178 
 10
 1325.856
 20
 368.75
 11
 1328.646
 21
 369.6801
  0
LINE
  8
0
 62
 178 
 10
 1328.646
 20
 369.6801
 11
 1330.506
 21
 371.5402
  0
LINE
  8
0
 62
 178 
 10
 1330.506
 20
 371.5402
 11
 1331.436
 21
 374.3304
  0
LINE
  8
0
 62
 178 
 10
 1331.436
 20
 374.3304
 11
 1331.436
 21
 375.2604
  0
LINE
  8
0
 62
 178 
 10
 1331.436
 20
 375.2604
 11
 1330.506
 21
 378.0506
  0
LINE
  8
0
 62
 178 
 10
 1330.506
 20
 378.0506
 11
 1328.646
 21
 379.9107
  0
LINE
  8
0
 62
 178 
 10
 1328.646
 20
 379.9107
 11
 1325.856
 21
 380.8408
  0
LINE
  8
0
 62
 178 
 10
 1325.856
 20
 380.8408
 11
 1324.926
 21
 380.8408
  0
LINE
  8
0
 62
 178 
 10
 1324.926
 20
 380.8408
 11
 1322.135
 21
 379.9107
  0
LINE
  8
0
 62
 178 
 10
 1322.135
 20
 379.9107
 11
 1320.275
 21
 378.0506
  0
LINE
  8
0
 62
 178 
 10
 1320.275
 20
 378.0506
 11
 1319.345
 21
 375.2604
  0
ENDSEC
  0
EOF
